MUZBANK


МУЗЫКАЛЬНО-ИНФОРМАЦИОННЫЙ БАНК





MMetallica • For Whom The Bell Tolls (аккорды и текст - chords & lyrics)


855

Print

Видео «For Whom The Bell Tolls (Metallica)»

Видео клипы к песне подбираются автоматически сайтом youtube. Возможны некоторые несоответствия клипов песне.

↑ Спрятать рекламу ↑






Intro:
F# F# E  (while bass plays doomy riff) x12, (4 as intro,
4 when drums come in, and 4 with
bass playing E G F# F)

Then:
E G F# F (x3) E F# G A
E G F# F (x3) E F# G B
E G F# F (x3) E F# G A
E G F# F (x3) E F# G B

Then verse chords (E, G, E, C, A) with the following lead
repeated over and over:

E|----------------|
B|----------------|
G|12-9-11----9-11-| (triplets)
D|--------12------|
A|----------------|
E|----------------|

E
Make us fight on the hills in the early day
G
Constant chill deep inside
E
Shouting gun, on they run through the endless grey
C    A
(can`t remember this line)
E
For a hill, men will kill why they do not know
G
(you get the idea)
E
C    A

Chorus:
E E E G   E E E A   E E E G E E Bb F#
				For whom
E E E G   E E E A   E E E G E E Bb G F#
the bell tolls                  Time marches
E E E G   E E E A   E E E G E E Bb F#
on                              For whom
E E E G   E E E A   E E E G E E Bb G F#
the bell tolls

Bridge:
E
E  (with lead, but I can`t remember it)
G GGGG GGGG
E
B

Verse 2
(same as verse 1)

Chorus
(same again)

Ending
E    F# F#
E    F# F#  G G
repeated, with wailing lead, harmonics etc, then, when
we do it at least, we go into free time on the final
G chord (you know, big heavy metal ending), big drum
fill, then:
G....   EEEEE
	E
	EEEE
	E
	EEEEE (ie a massive E chord at the end)



GUITAR TAB

Intro: (Riff 1 e 2) 

Riff 1: 
E|-----------------| 
B|-----------------| 
G|-----------------|  (12x) 
D|-4h-4---4--4---2-| 
A|-4h-4---4--4---2-| 
E|-2h-2---2--2---0-| 
   pm--------- 

E|-----------------| 
B|-----------------| 
G|-----------------| 
D|-4h-4------------| 
A|-4h-4------------| 
E|-2h-2------------| 
   pm-- 

Riff 2: 
E|-----------------|-----------------| 
B|-----------------|-----------------| 
G|-----------------|-----------------| 
D|-----------------|--------------2--| 
A|-2-5-4-3-2-5-4-3-|2-5-4-1-2-4-5-0--| 
E|-0-3-2-1-0-3-2-1-|0-3-2-1-0-2-3----| 
   pm-------------  ------------- 

E|-----------------|-----------------| 
B|-----------------|-----------------| 
G|-----------------|-----------------| 
D|-----------------|--------------4--| 
A|-2-5-4-3-2-5-4-3-|2-5-4-1-2-4-5-2--| 
E|-0-3-2-1-0-3-2-1-|0-3-2-1-0-2-3----| 
   pm-------------  ------------- 

Solo: 
E|---------------------|-------------------| 
B|---------------------|-------------------| 
G|--12-9-11----9-11----|--12-9-11----9-11--|   (15x) 
D|----------12---------|----------12-------| 
A|---------------------|-------------------| 
E|---------------------|-------------------| 

E|---------------------|-------------------| 
B|---------------------|-------------------| 
G|--12-9-11----9-------|-------------------| 
D|----------12---11-12-|--9-11------9------| 
A|---------------------|--------12-----10--| 
E|---------------------|-------------------| 

Riff 3: 
   E5    G5 
E|-----------------------| 
B|-----------------------| 
G|-----------------------| 
D|-2-----5----5----------| 
A|-2-----5----5----------| 
E|-0-----3----3----------| 
     E5  G5  C5  A5 
E|-----------------------| 
B|-----------------------| 
G|-----------5---2-------| 
D|---2---5---3---2-------| 
A|---2---5---3---0-------| 
E|---0---3---------------| 

Riff 4: 
          G5        A5        G5 A#5 F#5 
E|--------------------------------------| 
B|--------------------------------------| 
G|-------------------------------3------| 
D|--------5---------7---------5--3---4--| 
A|--------5---------7---------5--1---4--| 
E|-0-0-0--3--0-0-0--5--0-0-0--3------2--| 
          G5        A5       G5     A#5 F#5 F5 
E|--------------------------------------------| 
B|--------------------------------------------| 
G|----------------------------------3---------| 
D|--------5---------7---------------3---4---3-| 
A|--------5---------7--------5------1---4---3-| 
E|-0-0-0--3--0-0-0--5--0-0-0-3-0-0------2---1-| 


 Part 1: (Riff 03) 
Make his fight on the hill in the early day 
Constant chill deep inside 
Shouting gun, on they run through the endless grey 
On the fight, for they are right, yes, but who's to say? 
For a hill men would kill, why? they do not know 
Suffered wounds test their pride 
Men of five, still alive through the raging glow 
Gone insane from the pain that they surely know 

Refrão: (Riff 04) 
For whom the bell tolls 
Time marches on 
For whom the bell tolls 

Solo 1: 
(2:55) 
                                             E5 
E|------------------------|--------------------| 
B|------------------------|--------------------| 
G|--12--9--11----9--------|--------------------| 
D|------------12---11--12-|-9--11------9-------| 
A|------------------------|-------12-----10--2-| 
E|------------------------|------------------0-| 

E|------------------------|--------------------| 
B|------------------------|--------------------| 
G|--12--9--11----9--------|--------------------| 
D|------------12---11--12-|-9--11------9-------| 
A|------------------------|-------12-----10----| 
E|------------------------|--------------------| 
     G5 
E|------------------------| 
B|------------------------| 
G|------------------------| 
D|---5--5-5-5-5----5-5-5--| 
A|---5--5-5-5-5----5-5-5--| 
E|---3--3-3-3-3----3-3-3--| 
                                             B5 
E|------------------------|--------------------| 
B|------------------------|--------------------| 
G|--12-9-11-----9---------|--------------------| 
D|----------12-----11--12-|-9--11-----9--------| 
A|------------------------|--------12---10---9-| 
E|------------------------|------------------7-| 

Solo 2: 
E|--------------------------------------------| 
B|------------------------------------12-12---| 
G|--------------------12----------------------| 
D|--------12-------14----14-14--12h14---------| 
A|--14-12----12-14----------------------------| 
E|--------------------------------------------| 

E|--------------------------------------------| 
B|-------------------------------------12-----| 
G|--------------------12------------------12--| 
D|--------12-------14----14-14--12h14---------| 
A|--14-12----12-14----------------------------| 
E|--------------------------------------------| 

E|--------------------------------------------| 
B|------------------------------------12-12---| 
G|--------------------12----------------------| 
D|--------12-------14----14-14--12h14---------| 
A|--14-12----12-14----------------------------| 
E|--------------------------------------------| 


 Part 2: (Riff 3) 
Take a look to the sky just before you die 
It is the last time you will 
Blackened roar massive roar fills the crumbling sky 
Shattered goal fills his soul with a ruthless cry 
Stranger now, are his eyes, to this mystery 
He hears the silence so loud 
Crack of dawn, all is gone except the will to be 
Now the will see what will be, blinded eyes to see 

Refrão: (Riff 04) 
For whom the bell tolls 
Time marches on 
For whom the bell tolls 

Final: 

Riff 5: 
    E5  F#5   E5  F#5   G5 
E|----------------------------| 
B|----------------------------| 
G|----------------------------|  (2x) 
D|--2---4-4---2---4-4---5-5---| 
A|--2---4-4---2---4-4---5-5---| 
E|--0---2-2---0---2-2---3-3---| 

Bends Uníssonos: 
E|------9---------9-----10----| 
B|------12b-------12b---13b---| 
G|----------------------------|  (2x) 
D|----------------------------| 
A|----------------------------| 
E|----------------------------| 

Harmônicos Improvisados: 
   har.         H.A 
E|----------------------------| 
B|----------------------------| 
G|--7-----------7~~~~---------| 
D|----------------------------| 
A|----------------------------| 
E|----------------------------| 

Тональность:

Это должно быть в ТОП-листе! - Топ-лист композиций



Назад
Рекомендуем посмотреть другие песни исполнителя «Metallica»:

  • Комменты Fb ()
  • Комменты ВК



Добавить в Избранное Браузера
Сохранить здесь Очистить


x

0


+
-

+
-

-

Авторизация





Зарегистрироваться

M

Дата и время

  • 20:10:22
     

Социальные ссылки


Наши приложения

  • Muzbank App Play Market
  • Muzbank Amazon App