MUZBANK


МУЗЫКАЛЬНО-ИНФОРМАЦИОННЫЙ БАНК





MMetallica • Fuel (аккорды и текст - chords & lyrics)


743

Print

Видео «Fuel (Metallica)»

Видео клипы к песне подбираются автоматически сайтом youtube. Возможны некоторые несоответствия клипов песне.

↑ Спрятать рекламу ↑






Gb|----------------------------------------------|
Db|----------------------------------------------|
Ab|----------------------------------------------|
Eb|-3p0-0-3p0-0-3p0-3p0-0-3p0-0-3p0-3/5-5-5-53-3-|

Gb|------------------------------|
Db|-------7-7-7-5--------7-7-7-5-|
Ab|-0h5h7----------0h5h7---------|
Eb|------------------------------|

verse     x2               x2
Gb|------|      |---|
Db|------|      |---|
Ab|------|      |---|
Eb|-0--3-|      |-0-|


Chorus riffs (all four)
Gb|------------------------------------------------------------|
Db|------------------------------------------------------------|
Ab|5h7---7p5----5h7-----7p5-----5h7-----7p5-----5h7-----7p5----|
Eb|---0-0---0-0-----0-0-----0-0-----5-5-----5-5-----5-5-----5-5|

Gb|------------------------------------------------------------|
Db|------------------------------------------------------------|
Ab|5h7---7p5----5h7-----7p5-----5h7-----7p5-----5h7-----7p5----|
Eb|---3-3---3-3-----3-3-----3-3-----5-5-----5-5-----5-5-----5-5|

Gb|------------------------------------------------------------|
Db|------------------------------------------------------------|
Ab|5h7---7p5----5h7-----7p5-----5h7-----7p5-----5h7-----7p5----|
Eb|---0-0---0-0-----0-0-----0-0-----5-5-----5-5-----5-5-----5-5|

Gb|------------------------------------------------------------|
Db|------------------------------------------------------------|
Ab|5h7-5-5-7p5-5-5-5h7-5-5-7p5-5-5-7h9-7-7-9p7-7-7-7h9-7-7-9p7-|
Eb|------------------------------------------------------------|

pre-solo
Gb|------------------------------|
Db|------------------------------|
Ab|-7-7--5----------7-7--5-------|
Eb|--------0-0-0-0---------0-0-3-|

Gimme fuel
Gimme fire
Gimme that which I desire
Oh

Yea
Turn on, I see red
Adrenaline crash, crash my head
Natural joker, paint me dead
And I see red

Running across through black and white
War horse
War head
Fuck `em, man
White knuckles tight
Through black and white

Oh, I burn
Fuel is pumping engines
Burning hard
Loose and clean

Oh, and I burn
Turning my direction
Quench my thirst with gasoline

So gimme fuel
Gimme fire
Gimme that which I desire

Hey

Turn on beyond the bone
Swallow future, spit out hope
Burn your face upon the chrome

Yeah, oh yeah

Take the corner, going to crash
Yeah
Headlights
Headlines
Another joker, who lived too fast

Yeah
Lives way too fast, fast, fast, fast, fast
Oh

Oh, I burn
Fuel is pumping engines
Burning hard, loose and clean

Oh, and I burn
Turning my direction
Quench my thirst with gasoline

So gimme fuel
Gimme fire
Gimme that which I desire
Oh yeah

Oh
Gimme fuel
Gimme fire
My desire

Oh, I burn
Fuel is pumping engines
Burning hard, loose and clean

And I burn,
Turning my direction,
Quench my thirst with gasoline

Gimme fuel
Gimme fire
Gimme that which I desire
Oh

Тональность:

Это должно быть в ТОП-листе! - Топ-лист композиций



Назад
Рекомендуем посмотреть другие песни исполнителя «Metallica»:

  • Комменты Fb ()
  • Комменты ВК



Добавить в Избранное Браузера
Сохранить здесь Очистить


x

0


+
-

+
-

-

Авторизация





Зарегистрироваться

M

Дата и время

  • 07:50:37
     

Социальные ссылки


Наши приложения

  • Muzbank App Play Market
  • Muzbank Amazon App