MUZBANK


МУЗЫКАЛЬНО-ИНФОРМАЦИОННЫЙ БАНК





MMetallica • Fuel (аккорды и текст - chords & lyrics)


391

Print

Видео «Fuel (Metallica)»

Видео клипы к песне подбираются автоматически сайтом youtube. Возможны некоторые несоответствия клипов песне.

↑ Спрятать рекламу ↑






 


FIG. 1
------------------------------------------------|
------------------------------------------------|
------------------------------------------------|
--------------------------------5/7-7-7-7-75---|
------------------------------------------------|
|-3p0-0-3-0-3-0-3p0-0-3-0-3-0-3p0-0-3-0-3-0-3/5-5-5-5-53---|
        X             X             X


Repeat that once more, then a second guitar (kirk Hammett) plays..
FIG. 2
-------|
-------|
-------|
|-7-7-7-5^---------|Play that 4 times
|----------7-5-7---|
-------|

then....
FIG. 3
------------------|
------------------|
------------------|
------------------|
------------------|
|-3p0-0-3-0-3-0-3p0-0-3-0-3-0-|
                     X                                   X


Verse.Guitar 1 (James)
--------------|
--------------|
--------------|
-----5--------|
|-2--------------5--------|
|-0--------------3--------|
       "Turn on I  see red..."

2nd guitar (Kirk) then plays...
FIG. 4
-------------------------------------|
-------------------------------------|
|-------14-14-14-12----------14-14-14-12---------|
|-------14-14-14-12----------14-14-14-12---------|
|-12h14-------------14-12h14-------------14-12--|
-------------------------------------|

 Guitar 1 (James)
----------------------------------------------|
----------------------------------------------|
----------------------------------------------|
--------------9-----------4--------------3----|
|--2----------------------9-----------4--------------3----|
|--0----------------------7-----------6--------------5----|
A-drenaline crash and crack my head. Nitro junkie paint me dead.


(Then, repeat FIG. 2, then FIG. 3)

Then...
--------------------|
--------------------|
--------------------|
|2------------------------5-----|
|2------------------------5-----|
|0------------------------3-----|
A Hundred bucks, through black and white.

(then Kirk plays FIG. 4 again)

Then (guitar 1)..
----------------------------------------------|
----------------------------------------------|
----------------------------------------------|
|-2--------9------------8-------------------7-------------|
|-2--------9------------8-------------------7-------------|
|-0--------7------------6-------------------5-------------|
War horse....War head. Fuck em, man, white knuckle tight


(when he 

Тональность:

Это должно быть в ТОП-листе! - Топ-лист композиций



Назад
Рекомендуем посмотреть другие песни исполнителя «Metallica»:

  • Комменты Fb ()
  • Комменты ВК



Добавить в Избранное Браузера
Сохранить здесь Очистить


x

0


+
-

+
-

-

Авторизация





Зарегистрироваться

M

Дата и время

  • 00:30:26
     

Социальные ссылки


Наши приложения

  • Muzbank App Play Market
  • Muzbank Amazon App