MUZBANK


МУЗЫКАЛЬНО-ИНФОРМАЦИОННЫЙ БАНК





MMetallica • I`m Only Happy When It Rains (аккорды и текст - chords & lyrics)


1376

Print

Видео «I`m Only Happy When It Rains (Metallica)»

Видео клипы к песне подбираются автоматически сайтом youtube. Возможны некоторые несоответствия клипов песне.

↑ Спрятать рекламу ↑





I'm Only Happy When It Rains (Garbage Cover)

[Intro Guitar 1]
E-----------------|----------------|----------------|------------------|
B----------4------|---------4------|---------4------|-----------4---4--|
G------------6----|-----------6----|-----------6----|-----6-------6----|
D------6-------6--|-----6-------6--|-----6-------6--|-------6----------|
A---4-------------|----------------|----------------|--2---------------|
E-----------------|--4-------------|--5-------------|------------------|

[Intro Guitar 2] 
E-----------------------------------------------------------|
B---7/9-------5--4~~----7/9-------4--2~~--------------------|
G-----------------------------------------------------------|
D-----------------------------------------------------------|
A-----------------------------------------------------------|
E-----------------------------------------------------------|

                          G#m
I'm only happy when it rains
     F#					E
I'm only happy when it's complicated
C#m					  E
And though I know you can't appreciate it
  F#                      G#m
I'm only happy when it rains
  F#                        E
You know I love it when the news is bad
 C#m                        E
Why it feels so good to feel so sad
 F#	                       H
I'm only happy when it rains

[Intro]
C#m   G#m        A    H
Pour your misery down on me
Pour your misery down on me
Pour your misery down on me
Pour your misery down on me

			 G#m
I'm only happy when it rains
     F#					E
I feel good when things are going wrong
C#m					  E
I only listen to the sad, sad songs
  F#                     H
I'm only happy when it rains

[Intro] 

I only smile in the dark
My only comfort is the night gone black
I didn't accidentally tell you that
I'm only happy when it rains
You'll get the message by the time I'm through
When I complain about me and you
I'm only happy when it rains

[Intro]
Pour your misery down on me
Pour your misery down on me
Pour your misery down on me
Pour your misery down on me


You can keep me company
As long as you don't care


I'm only happy when it rains
For you want to hear about my new obsession?
I'm riding high upon a deep depression
I'm only happy when it rains
Pour your misery down on me

I'm only happy when it rains
Pour your misery down on me
I'm only happy when it rains
Pour your misery down on me



[Solo]
E-------------------|------------------|------------------|------------------|
B---9-h-11-p-9------|--9-h-11-p-9------|--9-h-11-p-9------|--9-h-11-p-9------|
G---------------6~~-|--------------4~~-|--------------6~~-|--------------6~~-|
D-------------------|------------------|------------------|------------------|
A-------------------|------------------|------------------|------------------|
E-------------------|------------------|------------------|------------------|


E-------------------|------------------|------------------|------------------|
B---9-h-11-p-9------|--9-h-11-p-9------|--9-h-11-p-9------|--9-h-11-p-9------|
G---------------6~~-|--------------4~~-|--------------6~~-|--------------4~~-|
D-------------------|------------------|------------------|------------------|
A-------------------|------------------|------------------|------------------|
E-------------------|------------------|------------------|------------------|

Тональность:

Это должно быть в ТОП-листе! - Топ-лист композиций



Назад
Рекомендуем посмотреть другие песни исполнителя «Metallica»:

  • Комменты Fb ()
  • Комменты ВК



Добавить в Избранное Браузера
Сохранить здесь Очистить


x

0


+
-

+
-

-

Авторизация





Зарегистрироваться

M

Дата и время

  • 22:36:45
     

Социальные ссылки


Наши приложения

  • Muzbank App Play Market
  • Muzbank Amazon App