MUZBANK


МУЗЫКАЛЬНО-ИНФОРМАЦИОННЫЙ БАНК





MMetallica • It`s Electric (аккорды и текст - chords & lyrics)


434

Print

Видео «It`s Electric (Metallica)»

Видео клипы к песне подбираются автоматически сайтом youtube. Возможны некоторые несоответствия клипов песне.

↑ Спрятать рекламу ↑






tune all guitars down 1/2 step
Db|-----------------------------------------------------|
Ab|---------0-----0-----0-2-2---------0-----0-----0-2-2-|
Eb|-2-2-2-2---2-2---2-2-------2-2-2-2---2-2---2-2-------|
       Main riff and Chorus


Db|------x-x-------x-x-|
Ab|------x-x--0----x-x-|
Eb|-0-2--x-x----2--x-x-|
       Verse

Db|---------------------------------|
Ab|---------------------------------|
Eb|-7-7-7-7-6-6-6-6-5-5-5-5-4-4-4-4-|
             Mid-solo

Db|-----------------------|
Ab|-2--2------------------|
Eb|-------2--0--0-1-2---2-|

Тональность:

Это должно быть в ТОП-листе! - Топ-лист композиций



Назад
Рекомендуем посмотреть другие песни исполнителя «Metallica»:

  • Комменты Fb ()
  • Комменты ВК



Добавить в Избранное Браузера
Сохранить здесь Очистить


x

0


+
-

+
-

-

Авторизация





Зарегистрироваться

M

Дата и время

  • 16:35:22
     

Социальные ссылки


Наши приложения

  • Muzbank App Play Market
  • Muzbank Amazon App