MUZBANK


МУЗЫКАЛЬНО-ИНФОРМАЦИОННЫЙ БАНК





MMetallica • Jump In The Fire (аккорды и текст - chords & lyrics)


617

Print

Видео «Jump In The Fire (Metallica)»

Видео клипы к песне подбираются автоматически сайтом youtube. Возможны некоторые несоответствия клипов песне.

↑ Спрятать рекламу ↑






176 bpm
fig.1
G|---------|---------|---------|----------|---------|----------|
D|---------|---------|---------|-R----R---|---------|----------|
A|---------|---------|---------|---3----1-|---------|-1-1-1-1/-|
E|-3-3-3-3-|-1-1-1-1-|-0-0-0-0-|----------|-3-3-3-3-|----------|
  . . . .   etc.

G|--------------|--------|-------|--------|---------|----------|
D|--------------|-----R--|-------|--------|---------|-R----R---|
A|/8-8-0-8-8-0-8|0-3----1|-------|--------|---------|---3----1-|
E|--------------|--------|3-3-3-3|1-1-1-1-|-0-0-0-0-|----------|

                                  end fig.1
G|---------|---------|---------|-----------||
D|---------|---------|---------|-R----R----||
A|---------|-1-1-1-1-|---------|---3----1--||
E|-3-3-3-3-|---------|-1-1-1-1-|-----------||

fig.2                                        end fig.2  2 times
G||----------------|----------|---------------|---------------||
D||-o--------------|----------|---------------|-------------o-||
A||-o-------------1|-(1)------|-------------3-|-(3)-3-3-3-4-o-||
E||---1-3-3-1-3-0--|-----1-1-1|-1-3-3-1-3-0---|---------------||

Verse 1,2
G||---|
D||-o-|  play fig.2  3 times, play first two bars of fig.2
A||-o-|
E||---|

  fill 1-----------------| Chorus
G|---------------|-------||               --||
D|---------------|-R-----||  play fig. 1  o-||
A|-------------3-|---4-4-||               o-||
E|-1-3-3-1-3-0---|-------||               --||
  e e e e e e q   h q q

Interlude & Guitar solo                                  8 times
G||-----------------|-----------|---------------|-------------||
D||-o---------------|-----------|---------------|-----------o-||
A||-o---------------|-----------|---------------|-----------o-||
E||---6-6-6-6-6-6-6-|-6-6-6-4-6-|-3-3-3-3-3-3-3-|-3-3-3-1-3---||

Verse 3: play fig.2  3 times, play first two bars of fig.2,
play fill 1
Chorus 3: play fig.1  2 times

Outro: play fig.2  10 times and fade

Lyrics:
Down in the depths of my firey home,
the summons bell will chime
Tempting you and all the earth to join our sinful kind
There`s a job to be done and I`m the one,
you people make me do it
Now it`s time for your fate and I won`t
hesitate to you down into
 this pit.

Chorus:
So come on!
Jump in the fire!
So come on!
Jump in the fire

With Hell in my eyes and with death in
my veins the end is closing in
Feeding on the minds of men and from their souls within
My disciples all shout to search you out
and they always shall obey
Follow me now, my child, not the meck or the mild,
but do just as I say

Chorus

Jump by your will or be taken by force,
I`ll get you either way
Trying to keep the hellfire lit, I`m stalking you as prey
Living your life as me, I am as you see.
There`s part of me in everyone
So, reach down, grab my hand,
walk with me through the land, come home
 where you belong

Chorus :
So come on!
Jump in the fire!
So come on!
Jump in the fire!
So come on!
Jump in the fire!
So come on!
Jump in the fire!
Come on, jump, baby, now!

Тональность:

Это должно быть в ТОП-листе! - Топ-лист композиций



Назад
Рекомендуем посмотреть другие песни исполнителя «Metallica»:

  • Комменты Fb ()
  • Комменты ВК



Добавить в Избранное Браузера
Сохранить здесь Очистить


x

0


+
-

+
-

-

Авторизация





Зарегистрироваться

M

Дата и время

  • 12:47:57
     

Социальные ссылки


Наши приложения

  • Muzbank App Play Market
  • Muzbank Amazon App