MUZBANK


МУЗЫКАЛЬНО-ИНФОРМАЦИОННЫЙ БАНК





MMetallica • Killing Time (аккорды и текст - chords & lyrics)


417

Print

Видео «Killing Time (Metallica)»

Видео клипы к песне подбираются автоматически сайтом youtube. Возможны некоторые несоответствия клипов песне.

↑ Спрятать рекламу ↑






 


Tune down 1/2 step:
Very fast Rock = 231
                                                 Gtr.1 
 Intro                                           P.M. 
  N.C.   (Drums)                                 trem.pick.............
-----------|
-----------|
-----------|
-----------|
-----------||--12------------------|
-----------||--///-----------------|

                                                                          
-----------|
-----------|
-----------|
-----------|
|--12-----------------||--10-----------------||--7------------------|
|--///-----------------||--///-----------------||--///-----------------|

  Gtr.3
  N.C.                                                    C5 
  Play 2nd time only 
-------------------||----------|
|*-----------------------------||----------|
-------------------||----------|
|*-----------------------------||----------|
-------------------||----------|
-------------------||----------|
|
| Gtr.1
| P.M. ..........................................|
-------------------||----------|
|*-----------------------------||----------|
---------------5---||----------|
|*-------------------------5---||----------|
|---0--0--0--0--0--0--0--0-||-0--0--0--0--0--0--0--3---||----------|
-------------------||----------|

   Play 2nd time only 
   Harm. .........|         N.C.                                      D5                  
-------------|
7------------|
|------7---------5-------|
|-7----------------------|
-------------|
-------------|
|
|
|                             P.M. .................................|
-------------|
-------------|
--(5)----7--|
--(3)----7--|
--(3)--||-0--0--0--0--0--0--0--0-||-0--0--0--0--0--0--0--5--|
-------------|

                      _______________________   ___________________________
                     |1.                     | |2.
                                                         2
                      Harm. ...............|             )
                                                        /            
--------|-----7-------||------20-----------------|
--------|7---------7--||----x--------------------|
--------||------7-----------------||--x-----------17--(17)--|
--------||-7-------------------------|
-------------|
-------------|
|
|
|
-------------|
-------------|
-------------|
--------|-----7------|--------7----|
--------|-----7------|--------7----|
-------------|
                                 ___________________________       
  Gtr.1                         |1.2.3.                     |          
  N.C.                                         G5       A5                                
    P.M.     P.M.     P.M.                                       
-------------------------|
|*----------------------------------*|
|---------7--------5----------|----7--------9----|
|*----------------------------||---7p5---------5--------7---*|
|---0--0-----0--0-----0--0----||----------0------------------|
-------------------------|


  _____________________ 
 |4.                   | 
   A5 
   w/Fill 1
------------|
|--10------10------10--|
|--9-------9--------9--|
|--7-------7--------7--|
------------|
------------|



Fill 1 (gtr.3)
       Full  Full        Full
        )     )```       )~~~~~~~~~
|----17/---17/----------17---||--(17)------------|
|----20----20------------20---||--(20)------------|
------------------|--------|
------------------|--------|
------------------|--------|
------------------|--------|


Rhy.Fig.1(Gtrs.1&2)
   N.C.
   P.M. ..|
-----------------------------|
|*---------------------------------------|
7p5-------5-----------||--7p5-------7---------9------|
|*----------7p5-------5-----------||--7p5-------5---------7------|
|---0---0---------0----------0----||--------0--------------------|
-----------------------------|
                                     ____________________________
   N.C.                             |1.                          |
   P.M.                                           (end Rhy.Fig.1)
-----------------------------|
----------------------------*|
7p5-------5-----------||--7p5-------5---------5------|
7p5-------5-----------||--7p5-------5---------5-----*|
|---0---0---------0----------0----||--------0---3---------3------|
-----------------------------|
  ____________________________
 |2.
              C5                 F5                      
------------------|----------|
------------------|----------|
|---7p5-------5-----------5-/-||-10------------------|
|---7p5-------5-----------5-/-||-10------------------|
|---------0---3-----------3-/-||-8-------------------|
------------------|----------|

   G5
---------------|
---------------|
|--12------12------12------|
|--12------12------12------|
|--10------10------10------|
---------------|


 1st,3rd,5th Verses
 w/Rhy.Fig.1(1 3/4 times)
 3rd time w/Fill 3
  
 N.C.                              G5      A5     N.C.
--------------|--------|
 1.Sound of gunfire comes thrught the night ;  killing andhatred,it 

Тональность:

Это должно быть в ТОП-листе! - Топ-лист композиций



Назад
Рекомендуем посмотреть другие песни исполнителя «Metallica»:

  • Комменты Fb ()
  • Комменты ВК



Добавить в Избранное Браузера
Сохранить здесь Очистить


x

0


+
-

+
-

-

Авторизация





Зарегистрироваться

M

Дата и время

  • 09:45:47
     

Социальные ссылки


Наши приложения

  • Muzbank App Play Market
  • Muzbank Amazon App