MUZBANK


МУЗЫКАЛЬНО-ИНФОРМАЦИОННЫЙ БАНК





MMetallica • Motorbreath (аккорды и текст - chords & lyrics)


691

Print

Видео «Motorbreath (Metallica)»

Видео клипы к песне подбираются автоматически сайтом youtube. Возможны некоторые несоответствия клипов песне.

↑ Спрятать рекламу ↑






RIFF A
E|----------------------------|----------------------------|
B|----------------------------|----------------------------|
G|----------------------------|----------------------------|
D|-9--9-9-9--9-9-9--9-9-9-9-9-|-5--5-5-5--5-5-5--5-5-5-5-5-|
A|-9--9-9-9--9-9-9--9-9-9-9-9-|-5--5-5-5--5-5-5--5-5-5-5-5-|
E|-7--7-7-7--7-7-7--7-7-7-7-7-|-3--3-3-3--3-3-3--3-3-3-3-3-|
 						 END RIFF A
E|----------------------------|----------------------------|
B|----------------------------|----------------------------|
G|----------------------------|----------------------------|
D|-7--7-7-7--7-7-7--7-7-7-7-7-|-4--4-4-4--4-4-4--4-4-4-4-4-|
A|-7--7-7-7--7-7-7--7-7-7-7-7-|-4--4-4-4--4-4-4--4-4-4-4-4-|
E|-5--5-5-5--5-5-5--5-5-5-5-5-|-2--2-2-2--2-2-2--2-2-2-2-2-|

RIFF B
E|------------------|------------------|
B|------------------|------------------|
G|------------------|------------------|
D|-9-9---7--9-9---7-|-5-5---4--5-5---4-|
A|-9-9---7--9-9---7-|-5-5---4--5-5---4-|
E|-7-7---5--7-7---5-|-3-3---2--3-3---2-|

                   END RIFF B
E|------------------|------------------|
B|------------------|------------------|
G|------------------|------------------|
D|-7-7---5--7-7---5-|-4-4---2--4-4-----|
A|-7-7---5--7-7---5-|-4-4---2--4-4-----|
E|-5-5---3--5-5---3-|-2-2---0--2-2-----|

RIFF C			 END RIFF C
E|---------------------------------|
B|---------------------------------|
G|---------------------------------|
D|-9-9---7-9-9---7-9-9---7-9-9---7-|
A|-9-9---7-9-9---7-9-9---7-9-9---7-|
E|-7-7---5-7-7---5-7-7---5-7-7---5-|

RIFF D					  END RIFF D
E|--------------------------------------------------|
B|--------------------------------------------------|
G|-------------7-7----------------------------------|
D|-9-9---5-5---7-7---4-4---5-5---2-2---4-4-4-2-4----|
A|-9-9-x-5-5-x-5-5-x-4-4-x-5-5-x-2-2---4-4-4-2-4----|
E|-7-7-x-3-3-x-----x-2-2-x-3-3-x-0-0---2-2-2-0-2----|

RIFF E (2 guitars)
E|--------------------------------|
B|--------------------------------|
G|--------------------------------|
D|--------------------------------|
A|-9---7---9---7---9-7-9-7-9---7--|
E|--------------------------------|

E|--------------------------------|
B|--------------------------------|
G|--------------------------------|
D|--------------------------------|
A|-9---7---9---7---9-7-9-7-9---7--|
E|--------------------------------|

E|--------------------------------|
B|--------------------------------|
G|--------------------------------|
D|--------------------------------|
A|--------------------------------|
E|-7#############################-|

E|--------------------------------|
B|--------------------------------|
G|--------------------------------|
D|--------------------------------|
A|--------------------------------|
E|-7#############################-|

E|--------------------------------|
B|--------------------------------|
G|--------------------------------|
D|--------------------------------|
A|-9---7---9---7---9-7-9-7-9---7--|
E|--------------------------------|
           END RIFF E
E|--------------------------------|
B|--------------------------------|
G|--------------------------------|
D|--------------------------------|
A|-9---7---9---7---9-7-9-7-9---7--|
E|--------------------------------|

E|--------------------------------|
B|--------------------------------|
G|--------------------------------|
D|--------------------------------|
A|--------------------------------|
E|-5#############################-|

E|--------------------------------|
B|--------------------------------|
G|--------------------------------|
D|--------------------------------|
A|--------------------------------|
E|-7#############################-|

RIFF F
E|--------------------------------------------------------|
B|--------------------------------------------------------|
G|--------------------------------------------------------|
D|-11------------11-9--9---11-9-11-------------11--6---6--|
A|-11------------11-9--9---11-9-11-------------11--6---6--|
E|-9-9-########--------------------9-########--9---4---4--|
						END RIFF F
E|--------------------------------------------------------|
B|--------------------------------------------------------|
G|--------------------------------------------------------|
D|-11------------11-9--9---11-9-11-------------6---6---6--|
A|-11------------11-9--9---11-9-11-------------6---6---6--|
E|-9-9-########--------------------9-########--4---4---4--|

RIFF G
E|--------------------------------------------------------|
B|--------------------------------------------------------|
G|--------------------------------------------------------|
D|-11------------11-9--9---11-9-11-------------11--6---6--|
A|-11------------11-9--9---11-9-11-------------11--6---6--|
E|-9-9-########--------------------9-########--9---4---4--|
						END RIFF G
E|--------------------------------------------------------|
B|--------------------------------------------------------|
G|--------------------------------------------------------|
D|-11------------11-9--9---11-9-11-------------11--10-----|
A|-11------------11-9--9---11-9-11-------------11--10-----|
E|-9-9-########--------------------9-########--9---8------|

Here?s the song:

A5 A#5

RIFF A x 2

RIFF B x 2

RIFF B x 2
 Living and dying laughing and crying
 Once you have seen it you will never be the same
 Life in the fast lane is just how it seems
 Hard and it is heavy dirty and mean

RIFF C x 1

RIFF D x 2
    Motorbreath
    Its how I live my life
    I can?t take it any other way
    Motorbreath
    The sign of living fast
    It is going to take
    Your breath away

RIFF E x 2

RIFF B x 2
 Don?t stop for nothing its full speed or nothing
 I am taking down you know whatever is in my way
 Getting your kicks as you are shooting the line
 Sending the shivers up and down your spine


RIFF C x 1

RIFF D x 2
    Motorbreath
    Its how I live my life
    I can?t take it any other way
    Motorbreath
    The sign of living fast
    It is going to take
    Your breath away

RIFF E x 2

B5 B5 C5

RIFF F x 1
	    (solo)
RIFF G x 1 /

RIFF B x 2

RIFF B x 2
 Those people who tell you not to take chances
 They are all missing on what life is about
 You only live once so take hold of the chance
 Don?t end op like others the same song and dance

RIFF C x 1

RIFF D x 2
    Motorbreath
    Its how I live my life
    I can?t take it any other way
    Motorbreath
    The sign of living fast
    It is going to take
    Your breath away

B5 C5

RIFF F x 6 (solo)

B5 B5 B5 F#5 F#5 F#5 C#5

Тональность:

Это должно быть в ТОП-листе! - Топ-лист композиций



Назад
Рекомендуем посмотреть другие песни исполнителя «Metallica»:

  • Комменты Fb ()
  • Комменты ВК



Добавить в Избранное Браузера
Сохранить здесь Очистить


x

0


+
-

+
-

-

Авторизация





Зарегистрироваться

M

Дата и время

  • 13:19:17
     

Социальные ссылки


Наши приложения

  • Muzbank App Play Market
  • Muzbank Amazon App