MUZBANK


МУЗЫКАЛЬНО-ИНФОРМАЦИОННЫЙ БАНК





MMetallica • No Remorse (аккорды и текст - chords & lyrics)


440

Print

Видео «No Remorse (Metallica)»

Видео клипы к песне подбираются автоматически сайтом youtube. Возможны некоторые несоответствия клипов песне.

↑ Спрятать рекламу ↑






RIFF A
E|--------------------------------------------|
B|--------------------------------------------|
G|------------------------------------------2-|
D|------------------------------------------2-|
A|-2-4---4-4---4-2---2-2--2-4---4-4---4-2---0-|
E|-0-2---2-2---2-0---0-0--0-2---2-2---2-0-----|
					  END RIFF A
E|--------------------------------------------|
B|--------------------------------------------|
G|------------------------------------------4-|
D|------------------------------------------4-|
A|-2-4---4-4---4-2---2-2--2-4---4-4---4-2---2-|
E|-0-2---2-2---2-0---0-0--0-2---2-2---2-0-----|

RIFF B
E|-------------------------------|
B|-------------------------------|
G|-----------------------------5-|
D|-----------------------------5-|
A|-----5-7-----5-7-----5-7-----3-|
E|-0-0-----0-0-----0-0-----0-0---|
                        END RIFF B

E|-------------------------------|
B|-------------------------------|
G|-------------------------------|
D|-------------------------------|
A|-----5-7-----5-7-----5-7-------|
E|-0-0-----0-0-----0-0-----5-6-7-|

RIFF C		 END RIFF C
E|-------------------------|
B|-------------------------|
G|-------------------------|
D|-5---2-5---2-5---2-5---2-|
A|-5---2-5---2-5---2-5---2-|
E|-3---0-3---0-3---0-3---0-|

RIFF D		    END RIFF D
E|--------------------------|
B|--------------------------|
G|--------------------------|
D|--------------------------|
A|-----10---9---7---5---5/7-|
E|-0-0----0---0---0---0-----|

RIFF E
E|----------------------------|-----------------|
B|----------------------------|-----------------|
G|---------------9------------|---------------7-|
D|---------------9------------|---------------7-|
A|---------------7------------|---------------5-|
E|-0-0-3-2-2-0-0--------------|-0-0-3-2-2-0-0---|
						 END RIFF E
E|----------------------------|-----------------|
B|----------------------------|-----------------|
G|---------------5------------|---------------7-|
D|---------------5------------|---------------7-|
A|---------------3------------|---------------5-|
E|-0-0-3-2-2-0-0--------------|-0-0-3-2-2-0-0---|

RIFF F
E|----------------------------|-------------------------------|
B|-7-5-4-5--4---4-------------|-7---5-4-5---4---4-------------|
G|------------7-----7-5-4-5-7-|---------------7-----7-5-4-5-7-|
D|----------------------------|-------------------------------|
A|----------------------------|-------------------------------|
E|----------------------------|-------------------------------|
						       END RIFF F
E|-------------------------------|-----------------|
B|-7---5-4-5---4---4-------------|-----------------|
G|---------------7-----7-5-4-5-7-|-7-------------2-|
D|-------------------------------|-7-------------2-|
A|-------------------------------|-5-------------0-|
E|-------------------------------|-----------------|

RIFF G
E|------------------|------------------|
B|------------------|------------------|
G|-2----------------|-7----------------|
D|-2----------------|-7----------------|
A|-0-0#############-|-5-0#############-|
E|------------------|------------------|

                             END RIFF G
E|------------------|------------------|
B|------------------|------------------|
G|-5----------------|-4--------4--5--4-|
D|-5----------------|-4--------4--5--4-|
A|-3-0#############-|-2#######-2--3--2-|
E|------------------|------------------|




RIFF H						 END RIFF H
E|-------------------------------------------------------|
B|-------------------------------------------------------|
G|-2-2-----5-2---2-2-----7-5---2-2-----5-2---0-0---4-5-4-|
D|-2-2--X--5-2---2-2--X--7-5---2-2--X--5-2---0-0---4-5-4-|
A|-0-0--X--3-0---0-0--X--5-3---0-0--X--3-0---0-0---2-3-2-|
E|-------------------------------------------------------|

E|----------------------------|-----------------|
B|----------------------------|-----------------|
G|---------------7------------|-----------------|
D|---------------7------------|---------------2-|
A|---------------5------------|---------------2-|
E|-0-0-3-2-2-0----------------|-0-0-3-2-2-0---0-|

Here`s the song:

RIFF A x 10 ( 6 in the middle with solo)

RIFF B x 4

RIFF B x 2
 No mercy for what we are doing
 No thought to even what we have done
 We don`t need to feel the sorrow
 No remorse for the helpless one

RIFF C x 4

RIFF D x 8
    War without end
    No remorse No repent
    We don`t care what it meant
    Another day Another death
    Another sorrow Another breath
    No remorse No repent
    We don`t care what it meant
    Another day Another death
    Another sorrow Another breath

RIFF B x 4

RIFF B x 2
 Blood feeds the war machine
 as it eats its way across the land
 We don`t need the feel the sorrow
 No remorse is the one command

RIFF C x 4

RIFF D x 8
    War without end
    No remorse No repent
    We don`t care what it meant
    Another day Another death
    Another sorrow Another breath
    No remorse No repent
    We don`t care what it meant
    Another day Another death
    Another sorrow Another breath

 (listen to the record and you`ll know what I mean)

RIFF E x 10

RIFF F x 1

RIFF B x 2

RIFF B x 2
 Only the strong survive
 No one to save the weaker race
 We are ready to kill all comers
 Like a loaded gun right at your face

RIFF C x 4

RIFF D x 8
    War without end
    No remorse No repent
    We don`t care what it meant
    Another day Another death
    Another sorrow Another breath
    No remorse No repent
    We don`t care what it meant
    Another day Another death
    Another sorrow Another breath

Attack

RIFF G x 4

RIFF H x 2
 Bullets are flying
 People are dying
    with madness surrounding all hell`s breaking loose
 Soldiers are hounding
 Bodies are mounting
    cannons are shouting to take their abuse

RIFF G x 2

RIFF H x 2
 With war machines going
 Blood starts to flowing
 No mercy given to anyone hear
 The furious fighting
 Swords are like lighting
 It all becomes frightening to you
 Know death is near
RIFF G x 2

C5 B5 E5
No Re-morse

RIFF I x 1

Тональность:

Это должно быть в ТОП-листе! - Топ-лист композиций



Назад
Рекомендуем посмотреть другие песни исполнителя «Metallica»:

  • Комменты Fb ()
  • Комменты ВК



Добавить в Избранное Браузера
Сохранить здесь Очистить


x

0


+
-

+
-

-

Авторизация





Зарегистрироваться

M

Дата и время

  • 16:53:39
     

Социальные ссылки


Наши приложения

  • Muzbank App Play Market
  • Muzbank Amazon App