MUZBANK


МУЗЫКАЛЬНО-ИНФОРМАЦИОННЫЙ БАНК





MMetallica • Nothing Else Matters (аккорды и текст - chords & lyrics)


927

Print

Видео «Nothing Else Matters (Metallica)»

Видео клипы к песне подбираются автоматически сайтом youtube. Возможны некоторые несоответствия клипов песне.

↑ Спрятать рекламу ↑






The End of the song:

Em
 E-------0-----|-------0-----|-------0-----|-------0---7-|
 B-----0---0---|-----0---0---|-----0---0---|-----0---0---|
 G---0-------0-|---0-------0-|---0-------0-|---0---------|
 D-------------|-------------|-------------|-------------|
 A-------------|-------------|-------------|-------------|
 E-0-----------|-0-----------|-0-----------|-0-----------|
                      
   Em
 E-7-----------7p0------------------7---8---7h8s5---7-5p3s2-----|
 B-----0------------0-----0---------0---0-----------------------|
 G---------0-----------0--------0-------------------------------|
 D--------------------------------------------------------------|
 A--------------------------------------------------------------|
 E-0----------------------0-------------------------------------|
   ...Am(2)

Тональность:

Это должно быть в ТОП-листе! - Топ-лист композиций



Назад
Рекомендуем посмотреть другие песни исполнителя «Metallica»:

  • Комменты Fb ()
  • Комменты ВК



Добавить в Избранное Браузера
Сохранить здесь Очистить


x

0


+
-

+
-

-

Авторизация





Зарегистрироваться

M

Дата и время

  • 17:05:16
     

Социальные ссылки


Наши приложения

  • Muzbank App Play Market
  • Muzbank Amazon App