MUZBANK


МУЗЫКАЛЬНО-ИНФОРМАЦИОННЫЙ БАНК





MMetallica • One (аккорды и текст - chords & lyrics)


1218

Print

Видео «One (Metallica)»

Видео клипы к песне подбираются автоматически сайтом youtube. Возможны некоторые несоответствия клипов песне.

↑ Спрятать рекламу ↑





1a)
G-----------------------------------------------------0-----
D-----4-----0------4-----0------4-----0------4-----0--------
A--2-----2-------------------2-----2------------------------
E---------------3-----3-------------------3-----3-----------

1б)
G-----------------------------------------------------------
D-----4-----0------4-----0------4-----0---------------------
A--2-----2------0-----0---------------------2----2----2--4-2
E----------------------------3-----3------0----2----0-------
вступление (очень чистенько)


2a)
G-----------------------------------------------------------
D----4--0-0-4-0----4--0-0-4-0----4--0-0-4-0----4--0-0-4-0---
A--2---------------------------2----------------------------
E----------------3---------------------------3--------------

2b)                                          2c)                  2d)
G-------------------------0---------------  -------------------  --------
D----4--0-0-4-0----4--0-4------4--0-0-4-0-  4-2-4-2------0-----  --------
A--2-------------0------------------------  -----------5------7  ---2---2
E----------------------------3------------  ---------3-----3-5-  -0---2--
Рифф куплета (тоже чисто)
2c) играется во время вступления, а 2d) во время куплета


3)
e------------------------------1---------0 п ----
B----------------------------1-------0---- о ----
G------0-7--7-7-7----------0-------0---0-- в ----
D----7------------7-0-5--3-------2-------- т ----
A--5-------------------------------------- о -3-2
E----------------------------------------- р ----
переход (опять же чисто)

4)
D-----2--4--2--------4--2--4/64-2--4/5-7
A--5--0--2--0--5--4--2--0--2/42-0--2/3-5
E--3-----------3--2----------------------
«Hold my breath...» (УЖЕ С DISTORTION!!!)


5)
D----2-4-2-----4-2-4/64-2-4--                     ---2-4-2-----4
A--5-0-2-0-5-4-2-0-2/42-0-2—-  2 раза повторить,  -5-0-2-0-5-4-2
E--3-------3-2----------------      потом          -3-------3-2--
«Now the world...» (DISTORTION ЖИВ!!!)


6)
D--2-0-2-0------------4-4---4-4/5---5  повторить
A--3-0-3-0-5-5-5-5-5--2-2---2-2/3---3  4 раза
E----------3-3-3-3-3------2-------3--  потом
          pm........      .       .




7)
D--5-5-5-7-5--4-4-4-5-4--4-4---4-4/5---5  повтор -2
A--7-7-7-7-7--5-5-5-5-5--2-2---2-2/3---3  два    -2
E----------------------------2-------3--  раза   -0
                           pm.........


8a)
D--------------------------------------2----------2/3
A--------------------------------------2----------2/3
E--0-0-0-0-0-0--0-0-0-0-0-0--0-0-0-0-0-0--0-0-0-0-0/1
  pm............................    .......
«...Darkness»

8b)
D--------------------------------
A--7--7-8--5--5-8--7--7-8--5--5--
E-------------------------------7
между «darkness...» и «landmine...»


9a)
D----------2----------2-----3
A----------2----------2-----3
E--0-0-0-0-0--0-0-0-0-0-0-0-1
  pm.........................
после «landmine...»

9b)
D------5-----5
A------5-----5
E--0-0-3-0-0-3
 pm...   ...
играть постепенно усиливая после соло



 соло вступления
  1       2       3  4    1       2   3       4          1        2  3  4
|-----------------------|------------------------------|--------------------|
|-----------------------|-----3p2-----3p2---------3----|-3p2----------------|
|---------2---4b6b4-----|---------4-------2------------|-----4--------------|
|-----2h4---------------|------------------------------|--------------------|
|-----------------------|------------------------------|--------------------|
|-----------------------|------------------------------|--------------------|

    1       2       3       4          1     2     3     4
|----------------------------------|----------------------------|
|-----75---54---42---2p0--------|------------------------2h3-|
|---------7-----------4-----0h2----|-2/4--------------2/4-------|
|----------------------------------|----------------------------|
|----------------------------------|----------------------------|
|----------------------------------|----------------------------|

    1   2    3        4         1     2     3     4       1     2
|---------------------------|-------------------------|-------------|
|-2-------------2---3p2-----|-------------------------|-------------|
|---------2/4-----------2---|-2/4---------------------|-------------|
|---------------------------|-------------------------|-------------|
|---------------------------|-------------------------|-------------|
|---------------------------|-------------------------|-------------|

    1     2     3         4       1           2      3     4
|-----------------}14---19----|-17-15-14-15--------------------|
|-----------------{x----------|-------------15-----------------|
|-----------------}x----------|--------------------------------|
|-----------------{x----------|--------------------------------|
|-----------------------------|--------------------------------|
|-----------------------------|--------------------------------|

    1       2     3       4          1       2          3      4
|--------------------------------|---------------------------------|
|--------------------------------|---------------------------------|
|-----7p6-7-----9p7-9-------11p9-|-11----11/12---12---11-----------|
|--------------------------------|---------------------------------|
|--------------------------------|---------------------------------|
|--------------------------------|---------------------------------|

    1         2          3           4            1          2
|---------------------------------------------|----------------12-|
|----------------------------------12---------|----12-14---15-----|
|-----------11-12-14---------11-12------------|-11----------------|
|--------12---------------12---------------12-|-------------------|
|-----14---------------14---------------14----|-------------------|
|---------------------------------------------|-------------------|

    3         4           1         2      3     4
 -----------------------|------------------------------|
 ---15---14---12---14---|-14-----15-12-----------------|
 -----------------------|------------------------------|
 -----------------------|------------------------------|
 -----------------------|------------------------------|
 -----------------------|------------------------------|


обычное соло
|----------------------------|----------------------|----------------------|
|-------------10p7-----7-----|-10-----10---8---7----|-7h8p7----------------|
|------------------7---------|--------------------9-|--------7-------------|
|----------------------------|----------------------|----------------------|
|-(5)------------------------|----------------------|----------------------|
|----------------------------|----------------------|----------------------|

|-/10-8-7-----7---8-|---------17p14-----14-|-17---17-15--14---15p14--------|
|---------10--------|-8~~~~~---------15----|-------------------------------|
|-------------------|----------------------|-------------------------------|
|-------------------|----------------------|-------------------------------|
|-------------------|----------------------|-------------------------------|
|-------------------|----------------------|-------------------------------|

|------------------15--17--|--19p17p15-19p17p15-19p17p15-14-15----14-------|
|-15------15--19-----------|-----------------------------------17----15----|
|--------------------------|-----------------------------------------------|
|--------------------------|-----------------------------------------------|
|--------------------------|-----------------------------------------------|
|--------------------------|-----------------------------------------------|

|------|-------------------------------|-----------------------------------|
|------|-/8---8--87-------------------|-/13----13---13---13---12----------|
|------|-/7---7--7----7----------------|-/12----12---12---12---12----------|
|------|-------------------------------|-----------------------------------|
|------|-------------------------------|-----------------------------------|
|------|-------------------------------|-----------------------------------|

    T          T          T          T          T          T
|---20p17p13---20p17p13---20p17p13---20p17p13---20p17p13---20p17p13--------|
|--------------------------------------------------------------------------|
|--------------------------------------------------------------------------|
|--------------------------------------------------------------------------|
|--------------------------------------------------------------------------|
|--------------------------------------------------------------------------|
[ T := рёбрышком медиатора ]

    T             T
|---20p12h13p12---20p12h13p12-|
|-----------------------------|
|-----------------------------|
|-----------------------------|
|-----------------------------|
|-----------------------------|


соло быстрое, не сверните пальцы... Потренируйтесь...

  T         T        T        T        T        T        T        T
E-19p15p12--19p15p12-19p15p12-19p15p12-19p15p12-19p15p12-19p15p12-19p15p12-|
B--------------------------------------------------------------------------|
G--------------------------------------------------------------------------|
D--------------------------------------------------------------------------|
A--------------------------------------------------------------------------|
E--------------------------------------------------------------------------|

  T         T        T        T        T        T        T        T
E-20p15p12--20p15p12-20p15p12-20p15p12-20p15p12-20p15p12-20p15p12-20p15p12-|
B--------------------------------------------------------------------------|
G--------------------------------------------------------------------------|
D--------------------------------------------------------------------------|
A--------------------------------------------------------------------------|
E--------------------------------------------------------------------------|

  T         T        T        T        T        T        T        T
E--------------------------------------------------------------------------|
B-19p15p12--19p15p12-19p15p12-19p15p12-19p15p12-19p15p12-19p15p12-19p15p12-|
G--------------------------------------------------------------------------|
D--------------------------------------------------------------------------|
A--------------------------------------------------------------------------|
E--------------------------------------------------------------------------|

  T         T        T        T        T        T        T        T
E--------------------------------------------------------------------------|
B-20p15p12--20p15p12-20p15p12-20p15p12-20p15p12-20p15p12-20p15p12-20p15p12-|
G--------------------------------------------------------------------------|
D--------------------------------------------------------------------------|
A--------------------------------------------------------------------------|
E--------------------------------------------------------------------------|

  T         T        T        T        T        T        T        T
E--------------------------------------------------------------------------|
B-17p13p10--17p13p10-17p13p10-17p13p10-17p13p10-17p13p10-17p13p10-17p13p10-|
G--------------------------------------------------------------------------|
D--------------------------------------------------------------------------|
A--------------------------------------------------------------------------|
E--------------------------------------------------------------------------|

  T         T        T        T        T        T        T        T
E--------------------------------------------------------------------------|
B-18p13p10--18p13p10-18p13p10-18p13p10-18p13p10-18p13p10-18p13p10-18p13p10-|
G--------------------------------------------------------------------------|
D--------------------------------------------------------------------------|
A--------------------------------------------------------------------------|
E--------------------------------------------------------------------------|

  T        T     T     T     T     T      T     T    T    T    T    T
E---------------------------------------|----------------------------------|
B-17p12h14-17p12-17p10-17p12-17p10-17p8-|-17p10-17p8-17p7-17p8-17p7-17p5---|
G---------------------------------------|----------------------------------|
D---------------------------------------|----------------------------------|
A---------------------------------------|----------------------------------|
E---------------------------------------|----------------------------------|

E------------------------------14-14-14-|-15-15-15--17-17-17-----------|
B-/12-12-12--12-12-12--12--12-----------|---------------------15-15-15-|
G---------------------------------------|------------------------------|
D---------------------------------------|------------------------------|
A---------------------------------------|------------------------------|
E---------------------------------------|------------------------------|

E-17-17-17-17-|-22^24-------22^24----22^24~|~~~~~~~~---------------15-----|
B-------------|----------------------------|--------------/17--------------|
G-------------|----------------------------|-------------------------------|
D-------------|----------------------------|-------------------------------|
A-------------|----------------------------|-------------------------------|
E-------------|----------------------------|-------------------------------|

E-17p15---------------15h17p15-------------|-15h17p15-------------15h17p15-|
B--------17-15-17-19-----------17-15-17-19-|----------17-15-17-19----------|
G------------------------------------------|-------------------------------|
D------------------------------------------|-------------------------------|
A------------------------------------------|-------------------------------|
E------------------------------------------|-------------------------------|

E-----------15-|-17p15------------15-17p15---------15h17----|
B-17-17-19-----|--------15-17-19------------17--15----------|
G--------------|--------------------------------------------|
D--------------|--------------------------------------------|
A--------------|--------------------------------------------|
E--------------|--------------------------------------------|

E-19p17p15-----19p17p15-----19p17p15------19p17p15----------|
B----------15-----------15------------15------------15------|
G-----------------------------------------------------------|
D-----------------------------------------------------------|
A-----------------------------------------------------------|
E-----------------------------------------------------------|

E-19p17--------19p17--------19p17---------19p17p15----------|
B----------15-----------15------------15--------------------|
G-----------------------------------------------------------|
D-----------------------------------------------------------|
A-----------------------------------------------------------|
E-----------------------------------------------------------|

E-------15-------15-------15-------15-|-18^19-15-------15-18^19-15-------15-|
B-18^20----18^20----18^20----18^20----|----------18^20-------------18^20----|
G-------------------------------------|-------------------------------------|
D-------------------------------------|-------------------------------------|
A-------------------------------------|-------------------------------------|
E-------------------------------------|-------------------------------------|

E-19p17p15-17----17p15----15----------|-------------------------------------|
B----------------------19-------------|-19p17p15-17-----15h17p1513--15-----|
G-------------------------------------|-------------------------------------|
D-------------------------------------|-------------------------------------|
A-------------------------------------|-------------------------------------|
E-------------------------------------|-------------------------------------|

E------------------------------------------|--------------------------------|
B-13h15p1312--13-----12h13p12----12-------|--------------------------------|
G------------------------------14----14p12-|-14p12----12----12--14^-14^-14^-|
D------------------------------------------|-------14----14-----------------|
A------------------------------------------|--------------------------------|
E------------------------------------------|--------------------------------|

E----------------------------|---------------------|------------------------|
B----------------------------|---------------------|------------------------|
G-14^16-14^16-----v14p12-----|-12-----12-----------|------------------------|
D-------------------------14-|----14------14-13-12-|------------------------|
A----------------------------|---------------------|-14-13-12-10~~~~~-------|
E----------------------------|---------------------|------------------------|

E---------------------------|---------------------------|-------------------|
B---------15^----------15^--|---------15^----------15^--|-17^-v-^-v-^-17^v^-|
G---------15^----------15^--|---------15^----------15^--|-17^-v---v-^-17^v^-|
D-17--17--------17--17------|-17--17--------17--17------|-------------------|
A---------------------------|---------------------------|-------------------|
E---------------------------|---------------------------|-------------------|

E---------------------|------------------------|----------------------------|
B-v(17)-^-v--15----15-|--------15^---------15^-|-17-----17-----15^-------15-|
G-v(17)-^-v--15----15-|--------15^---------15^-|-17-----17-----15^----------|
D---------------17----|-17--17------17--17-----|----------------------------|
A---------------------|------------------------|----------------------------|
E---------------------|------------------------|----------------------------|

E-------15--------15--------15--------15-|-------15--------15--------------||
B-18^20-----18^20-----18^20-----18^20----|-18^20-----18^20-----18^20~~~~~~-||
G----------------------------------------|---------------------------------||
D----------------------------------------|---------------------------------||
A----------------------------------------|---------------------------------||
E----------------------------------------|---------------------------------||

E------------------------------------|------------------------------------|
B------------------------------------|------------------------------------|
G------------------------------------|------------------------------------|
D------------------------------------|------------------------------------|
A---------------------------5-5-5----|-5-5-5----4-4-4---3-3-3---2-2-2-----|
E-3-3-3--3-3-3--3--------------------|------------------------------------|

Рифф C
  E5                                      F5
-------------------------|--------------------|
-------------------------|--------------------|
-------------------------|--------------------|
---------------2---------|--------2--------3--|
---------------2---------|--------2--------3--|
--0-0-0-0-0-0-----0-0-0--|--0-0-0----0-0-0----|

[ Рифф С играть 9 раз ]

E------------------------------------|------------------------------------|
B------------------------------------|------------------------------------|
G------------------------------------|------------------------------------|
D------------------------------------|------------------------------------|
A---------------------------5-5-5----|-5-5-5----4-4-4---3-3-3---2-2-2-----|
E-0-0-0--0-0-0--0--------------------|------------------------------------|

[ играть в 2 гитары ]
E-----------------------5--5--5------|------------------7--7--7--5--------|
B-8--8--8--7^-----------7--7--7------|--8^--------5-----8--8--8--7--------|
G-9--9--9--7^----7-------------------|--8^--------------------------------|
D----------------9-------------------|------------9-----------------------|
A------------------------------------|------------------------------------|
E------------------------------------|------------------------------------|

E-7--5-----5-------5-----------------|------------------------------------|
B-8--7--8--7-------7--8--7--8--------|-8--7--5--7--------7--5-----5-------|
G-------9-------------9--7--9--------|-9--7--6--7--------7--6--7--6-------|
D------------------------------------|-------------------------9----------|
A------------------------------------|------------------------------------|
E------------------------------------|------------------------------------|

E-----------------------5--5--5------|------------------7--7--7--5--------|
B-8--8--8--7^-----------7--7--7------|--8^--------5-----8--8--8--7--------|
G-9--9--9--7^----7-------------------|--8^--------------------------------|
D----------------9-------------------|------------9-----------------------|
A------------------------------------|------------------------------------|
E------------------------------------|------------------------------------|

E-7--5-----5-------5-----------------|-8--7--5--7--------7--5-----5-------|
B-8--7--8--7-------7--8--7--8--------|-10-8--7--8--------8--7--8--7-------|
G-------9-------------9--7--9--------|-------------------------9----------|
D------------------------------------|------------------------------------|
A------------------------------------|------------------------------------|
E------------------------------------|------------------------------------|

E-----------------------5--5--5------|------------------7--7--7--5--------|
B-8--8--8--7^-----------7--7--7------|--8^--------5-----8--8--8--7--------|
G-9--9--9--7^----7-------------------|--8^--------------------------------|
D----------------9-------------------|------------9-----------------------|
A------------------------------------|------------------------------------|
E------------------------------------|------------------------------------|

E-7--5-----5-------5-----------------|------------------------------------|
B-8--7--8--7-------7--8--7--8--------|-8--7--5--7--------7--5-----5-------|
G-------9-------------9--7--9--------|-9--7--6--7--------7--6--7--6-------|
D------------------------------------|-------------------------9----------|
A------------------------------------|------------------------------------|
E------------------------------------|------------------------------------|

E-----------------------5--5--5------|------------------7--7--7--5--------|
B-8--8--8--7^-----------7--7--7------|--8^--------5-----8--8--8--7--------|
G-9--9--9--7^----7-------------------|--8^--------------------------------|
D----------------9-------------------|------------9-----------------------|
A------------------------------------|------------------------------------|
E------------------------------------|------------------------------------|

E-7--5-----5-------5-----------------|------------------------------------|
B-8--7--8--7-------7--8--7--8--------|-8--7--5--7--------7--5-----5-------|
G-------9-------------9--7--9--------|-9--7--6--7--------7--6--7--6-------|
D------------------------------------|-------------------------9----------|
A------------------------------------|------------------------------------|
E------------------------------------|------------------------------------|

E------------------------------------|------------------------------------|
B-5----------------------------------|------------------------------------|
G-6--7--6--7-------7--6--4--6--------|-6--4--2--4--------4--2--0--2-------|
D----9--7--9-------9--7--5--7--------|-7--5--4--5--------4--2--0--2-------|
A------------------------------------|------------------------------------|
E------------------------------------|------------------------------------|

====================================БАСС===================================

Помните, уважаемые басисты, Newstead игает медиатором.

Примечание:

| |
| |  такт
| |
| |

   (X)
|    | повторить такт Х раз
|X  X|
|X  X|
|    |

 /-
2 H 3 хаммер                      . длительность ноты
(2/4) время длительности          ,/ слайды
1------- только в первый раз      (1)----- также как и в первый раз
2------- только во второй раз    1.2.3---- первый, второй и третий раз
4------- в четвёртый раз

W целая нота  		H половинная нота    	Q четвертная нота
E восьмая нота		S 16-ая нота     	TTT триоль (восьмых)
ttt триоль 16-х нот
темп 108 ударов в минуту (это тем, у кого дома завалялся метроном)

intro: (4/4)        (3/4)
   E E E E E E E E | Q E E E E |  Q. E E E | Q E E S   S E  |  Q. E S S E|
g:-----------------|---4-------|-----------|---4------------|------2-0---|
d:-----------------|-----------|X----------|--------/-----X|----------2-|
a:-r-2-r-2-r-2-r-2-|-2---2-3-2-|X----------|-2---2-2-H-3-2-X|-0—0--------|
e:-----------------|-----------|--3—3-0-2--|----------------|------------|

   Q. E S S E | Q.  E E E | Q E E E E  | E E E E  E  E  | Q E E E E |
g:------------|-----------|------------|-------7--------|-----------|
d:------------|-----------|------------|-0-7-0----------|---5-------|
a:------------|---------4-|---5----0-7-|---------/7-----|-------0---|
e:-3—3-0-2-3--|-0---0-2---|-3---3------|-------------8-|-3---3---3-|

   Q E E E E | E E E E E E | E E E E E E  | Q E E E E | Q E E E E | Q. E. E   E|
g:-----------|-------------|-------7------|-----------|-----------|------------|
d:---3---3---|-----2---2---|-0-7-0--------|---5-------|---3---3---|--------/--|
a:-----------|---2---2---2-|---------7----|-------0---|-----------|-------2-H-3|
e:-1---1---1-|-0-----------|-----------8-|-3---3---3-|-1---1---1-|-0---0------|

1ый и 2ой куплеты
(3/4)
   Q.  E E E | Q. E E E | Q. E E E | Q E E E  E  | Q. E S   S E   Q. E S S E|
g:-----4-----|----------|----4-----|-------------|--------------|------2-0--|
d:-----------|----------|----------|--------/---|-------/-----|----------2|
a:-2-----3-2-|----------|-2----3-2-|-----0-2-h-5-|-2--2-2-H-3-2-|-0--O------|
e:-----------|-3--3-0-2-|----------|-3-3---------|--------------|-----------|

               (2/4)     (3/4)
   Q. E S S E | E E E E | q E E S   S E | Q. E E E | Q. E S   S E |
g:------------|---------|---4-----------|----------|--------------|
d:------------|---------|--------/-----|----------|-------/-----|
a:------------|---2---2-|-2---2-2-h-3-2-|----------|-2--2-2-h-3-2-|
e:-3--3-0-2-3-|-0---2---|---------------|-3--3-0-2-|--------------|

                                                        (2/4)
   Q  E E S   E | Q. E S   S E | Q. E S S E | Q. E S S E | Q  E E |
g:--------------|--------------|------2-0---|------------|--------|
d:---------/---|-------/-----|----------2-|------------|--------|
a:------0-2-h-5-|-2--2-2-h-3-2-|-0--0-------|------------|--------|
e:-3--3---------|--------------|------------|-3--3-0-2-3-|-0--2-0-|

«Hold my breath ...»
(6/4)                                   (3/4)
   Q. E E E Q Q Q | Q. E E E Q E E E E | Q E E  E E  | Q E E E E |
g:----------------|--------------------|--------7----|-----------|
d:----------------|--------------5---6-|---7---------|---5-------|
a:----0-2-0-----2-|-0--2-4-2-0-3---4---|-5---5-------|-----------|
e:-3--------3-2---|--------------------|----------8-|-3---3-5-3-|

                          1                                      |
  Q E E E E | E E E E E E | E E E E E E  | Q E E E E | Q E E E E |
g:----------|-------------|-------7------|-----------|-----------|
d:---3--3---|-----2---2---|-0-7-0--------|---5-------|---3---3---|
a:----------|---2---2---2-|---------7----|-------0---|-----------|
e:-1---1--1-|-0-----------|-----------8-|-3---3---3-|-1---1---1-|

(1)          2                                      повторить 3 раза (6/4)
g:---------|--------7----|---------|----------|--------------|---------------|
d:---------|X-0-7-0------|--5------|---3---3--|-----2---2---X|---------------|
a:------2-3|X---------7--|------0--|----------|---2---2---2-X|----0-2-0-----2|
e:-0--0----|------------8|3---3---3|-1---1---1|-0------------|-3--------3-2--|

                                  (3/4)
   Q. E E E Q Q Q | Q. E E E Q Q Q | Q E E E E | E E E E E E| Q E E E E|
g:----------------|----------------|-----------|------------|----------|
d:----------------|----------------|---0-----0-|------------|----------|
a:-0--2-4-2-0-2-4-|----0-2-0-----2-|-0---0-0---|-------5----|-2-2---2--|
e:----------------|-3--------3-2---|-----------|-3-3-3---3-0|-----0---0|

   Q E E E E| E E E E E E| E E E E E E| Q E E E E| E S S E E E E|
g:----------|------------|------------|----------|--------------|
d:----------|-----0---0--|------------|----------|--------------|
a:-3-3---3--|-0-0---0---0|-------0----|-2-2---2-0|-3-3-3-3---3--|
e:-----1---0|------------|-3-3-3---3-0|-----0----|---------1---0|

   E E E E E E| E E E E E E| Q E E E E| E E E E E E| E E E E E E|
g:-----2------|------------|----------|------------|-----2------|
d:---0---0----|------------|----------|------------|---0---0----|
a:-0-------0--|-------5----|-2-2---2--|-3-3-3---3--|-0-------0--|
e:-----------0|-3-3-3---3-0|-----0---0|-------1---0|-----------0|

   E E E E E E| Q E E E E| E S S E E Q | E E E E E E| E E E E Q | Q. E E E|
g:------------|----------|-------------|------------|-----------|---------|
d:------------|----------|-------------|-------7----|-0-0-0-7---|---------|
a:------------|-2-2---2-0|-3-3-3-3---3/|-7-7-7---7-0|---------5|-2----2-0|
e:-3-3-3-5-3-0|-----0----|---------1---|------------|-----------|----0----|

                                                                 (4/4)
   E E E E Q | E E E E Q| E E E E Q | Q E E E E| E S S E E E E| W   W
g:-----------|----------|-----------|----------|--------------|--|----|
d:-----------|-------7--|-0-0-0-7---|----------|--------------|--|----|
a:-3-3-3---3/|-7-7-7---0|---------5|-2-2-0-2-0|-3-3-3-3---3--|-7|-(7)|
e:-------1---|----------|-----------|----------|---------1---0|-0|-(0)|

  (2/4)повторить 6 раз  (4/4)             повторить 5 раз
     t t t t t t E E  || t t t t t t Q    t t t t t t E E
g:|-------------------||-----------------------------------|
d:|X-----------------X||X---------------------------------X|
a:|X-------------7---X||X-------------7-------------------X|
e:|--0-0-0-0-0-0-0-r--||--0-0-0-0-0-0-0---0-0-0-0-0-0-0-1--|

     «Darkness...»
     t t t t t t E E  t t t t t t E E| t t t t t t E E t t t t t t E E|
g:|----------------------------------|--------------------------------|
d:|X---------------------------------|--------------------------------|
a:|X-------------7----------------7--|-------------7------------------|
e:|--0-0-0-0-0-0-0-r--0-0-0-0-0-0-0-r|-0-0-0-0-0-0-0-r-0-0-0-0-0-0-0-1|

    t t t t t t E E  t t t t t t E E| t t t t t t E E t t t t t t E E|
g:----------------------------------|--------------------------------|-
d:----------------------------------|--------------------------------|
a:--------------7----------------7--|-------------7------------------|
e:--0-0-0-0-0-0-0-r--0-0-0-0-0-0-0-r|-0-0-0-0-0-0-0-r-0-0-0-0-0-0-0-1|

   «...cell!» 1
   t t t t t t Q    t t t t t t E  E| t t t t t t Q     t t t t t t E E|
g:----------------------------------|----------------------------------|
d:----------------------------------|----------------------------------|
a:-------------7//-------------7/8|-------------5//-------------5/8|
e:-0-0-0-0-0-0-------0-0-0-0-0-0----|-0-0-0-0-0-0-------0-0-0-0-0-0----|

(1)

g:----------------------------------|----------------------------------|
d:----------------------------------|----------------------------------|
a:-------------7//-------------7/8|-------------5//-------------2--|
e:-0-0-0-0-0-0-------0-0-0-0-0-0----|-0-0-0-0-0-0-------0-0-0-0-0-0---1|

Вдвое быстрее (216 bpm)
2                           повторить 4 раза
     T T T T T T Q  T T T| T T T Q  T T T Q  ||  T T T T T T E E   T T T|
g:|----------------------|-------------------||-------------------------|
d:|X---------------------|------------------X||X------------------------|
a:|X-------------2-------|-------2--------3-X||X-7-7-7-7-7-7-7--r--7-7-7|
e:|--0-0-0-0-0-0----0-0-0|-0-0-0----0-0-0----||--0-0-0-0-0-0-0--r--0-0-0|

                                                    повторить 4 раза
   T T T E E T T T E E  ||  T T T T T T Q  T T T| T T T Q  T T T Q  |
g:----------------------||----------------------|-------------------|
d:---------------------X||X---------------------|------------------X|
a:-7-7-7-7-r-7-7-7-7-r-X||X-------------2-------|-------2--------3-X|
e:-0-0-0-0-r-0-0-0-0-r--||--0-0-0-0-0-0----0-0-0|-0-0-0----0-0-0----|

   T T T T T T E  E  T T T| T T T E E T T T T T T|  T T T T T T Q  Q|
g:------------------------|----------------------|------------------|
d:------------------------|----------------------|X-----------------|
a:-7-7-7-7-7-7-7--r--7-7-7|-7-7-7-7-r-7-7-7-7-7-7|X-------------7--7|
e:-0-0-0-0-0-0-0--r--0-0-0|-0-0-0-0-r-0-0-0-0-0-0|--0-0-0-0-0-0-0--0|

   T T T T T T Q Q| T T T T T T Q Q| T T T T T T Q Q  ||  T T T T T T Q Q|
g:----------------|----------------|------------------||-----------------|
d:----------------|----------------|-----------------X||X----------------|
a:-------------7-7|----------------|-----------------X||X-------------5-5|-
e:-0-0-0-0-0-0-0-0|-0-0-0-0-0-0-0-1|-3-3-3-3-3-3-3-3--||--3-3-3-3-3-3----|

   T T T T T T Q Q| T T T T T T Q Q  ||  E E Q  E E Q| E E Q  E E Q|
g:----------------|------------------||--------------|-------------|
d:----------------|-----------------X||X-------------|-------------|
a:-------------5-5|-----------------X||X-------------|-------------|
e:-3-3-3-3-3-3----|-1-1-1-1-1-1-1-1--||--0-0-3--0-0-3|-0-0-3--0-0-3|

   T T T T T T Q Q| T T T T T T Q Q| T T T T T T E E T T T|
g:----------------|----------------|----------------------|
d:----------------|----------------|----------------------|
a:----------------|----------------|---------------r-5-5-5|
e:-1-1-1-1-1-1-1-1|-1-1-1-1-1-1-1-1|-3-3-3-3-3-3-3-r------|

                                                   повторить 4 раза
   T T T T T T T T T T T T|  T T T T T T Q T T T| T T T Q T T T Q  |
g:------------------------|---------------------|------------------|
d:------------------------|X--------------------|-----------------X|
a:-5-5-5-4-4-4-3-3-3-2-2-2|X-------------2------|-------2-------3-X|-
e:------------------------|--0-0-0-0-0-0---0-0-0|-0-0-0---0-0-0----|

   T T T T T T E E T T T| T T T T T T T T T T T T||  T T T T T T Q T T T|
g:----------------------|------------------------||---------------------|
d:-2-2-2-2-2-2-2-r------|------------------------||X--------------------|
a:---------------r-5-5-5|-5-5-5-4-4-4-3-3-3-2-2-2||X-------------2------|
e:----------------------|------------------------||--0-0-0-0-0-0---0-0-0|

      повторить 13 раз
   T T T Q T T T Q  | E E Q  E E Q|  E E Q  E E Q| T T T T T T Q T T T|
g:------------------|-------------|--------------|--------------------|
d:-----------------X|-------------|--------------|--------------------|
a:-------2-------3-X|-------------|--------------|-------------2------|
e:-0-0-0---0-0-0----|-0-0-3--0-0-3|--0-0-3--0-0-3|-0-0-0-0-0-0---0-0-0|

   T T T Q T T T Q| E E Q  E E Q|  E E Q  E E Q||  T T T T T T Q  Q|
g:----------------|-------------|--------------||------------------|
d:----------------|-------------|--------------||X-----------------|
a:-------2-------3|-------------|--------------||X-------------7--7|
e:-0-0-0---0-0-0--|-0-0-3--0-0-3|--0-0-3--0-0-3||--0-0-0-0-0-0-0--0|

  1.2.3            4
   E E Q  E E Q  | E E Q  E E Q| E E Q  E E Q| T T T T T T Q T T T
g:---------------|-------------|-------------|--------------------|
d:--------------X|-------------|-------------|--------------------|
a:--------------X|-------------|-------------|-------------2------|
e:-1-1-1--1-1-1--|-3-3-3--3-3-3|-3-3-3--3-3-3|-0-0-0-0-0-0---0-0-0|

   T T T Q T T T Q  T T T T T T E  E T  T  T | T  T  T  E
g:----------------|--------------------------|------------|
d:----------------|--------------------------|------------|--ВСЁ!!!!!!!!!!!!
a:-------2-------3|-7-7-7-7-7-7-7--r-19-19-19|-19-19-19-19|
e:-0-0-0---0-0-0--|-0-0-0-0-0-0-0--r-00-00-00|-00-00-00-00|






I can't remember anything
Can't tell if this is true or dream
Deep down inside I feel to scream
This terrible silence stops me

Now what the war is through with me
I'm waking up , I cannot see
That there's not much left of me
Nothing is real but pain now

Hold my breath as I wish for death
Oh please God , wake me

Back in the womb it's much too real
In pumps life that I must feel
But can't look forward to reveal
Look to the time when I'll live

Fed through the tube that sticks in me
Just like a wartime novelty
Tied to machines that make me be
Cut this life off from me

Hold my breath as I wish for death
Oh please God , wake me
Now the world is gone , I'm just one
Oh God , help me hold my breath as I wish for death
Oh , please God help me

Darkness imprisoning me
all that I see
absolute horror
I cannot live
I cannot die
trapped in myself
body my holding cell

Landmine has taken my sight
taken my speech
taken my hearing
taken my arms
taken my legs
taken my soul
left me with life in hell

Тональность:

Это должно быть в ТОП-листе! - Топ-лист композиций



Назад
Рекомендуем посмотреть другие песни исполнителя «Metallica»:

  • Комменты Fb ()
  • Комменты ВК



Добавить в Избранное Браузера
Сохранить здесь Очистить


x

0


+
-

+
-

-

Авторизация





Зарегистрироваться

M

Дата и время

  • 00:23:57
     

Социальные ссылки


Наши приложения

  • Muzbank App Play Market
  • Muzbank Amazon App