MUZBANK


МУЗЫКАЛЬНО-ИНФОРМАЦИОННЫЙ БАНК





MMetallica • One (solo) (аккорды и текст - chords & lyrics)


840

Print

Видео «One (solo) (Metallica)»

Видео клипы к песне подбираются автоматически сайтом youtube. Возможны некоторые несоответствия клипов песне.

↑ Спрятать рекламу ↑





 


1---------------------------------------------------------------
2----3h2---3h2---3-3h2------------------------------------------
3|------2-4b6b4------4-----2-------4----------------------------------------
4|--2h4---------------------------------------------------------------------
5---------------------------------------------------------------
6---------------------------------------------------------------

1---------------------------------------------------------------
2|--7h5-5h3-3h22h0------------2h3h2---2-3h2---------------------------------
3------2-2b4--2b4-------4-------2-2b4---------------------------
4---------------------------------------------------------------
5---------------------------------------------------------------
6---------------------------------------------------------------


1|----7---------------------------------------------------------------------
2|--7---10h8-7h8------------------------------------------------------------
3|--7------------7 

Тональность:

Это должно быть в ТОП-листе! - Топ-лист композиций



Назад
Рекомендуем посмотреть другие песни исполнителя «Metallica»:

  • Комменты Fb ()
  • Комменты ВК



Добавить в Избранное Браузера
Сохранить здесь Очистить


x

0


+
-

+
-

-

Авторизация





Зарегистрироваться

M

Дата и время

  • 13:46:16
     

Социальные ссылки


Наши приложения

  • Muzbank App Play Market
  • Muzbank Amazon App