MUZBANK


МУЗЫКАЛЬНО-ИНФОРМАЦИОННЫЙ БАНК





MMetallica • Poor twisted me (аккорды и текст - chords & lyrics)


499

Print

Видео «Poor twisted me (Metallica)»

Видео клипы к песне подбираются автоматически сайтом youtube. Возможны некоторые несоответствия клипов песне.

↑ Спрятать рекламу ↑






Проигрыш:With delay and lots of extra muffled notes

E|--------7---------------------^-----------|----x-x-x---------|
B|-----------5------------------8-----------|-----------5------|
G|-----------5------------------7-----------|-----------5------|
D|----7--------------7---Bend-7-up-then-down|---7------------7-|
A|------------------------------------------|------------------|
E|-/5-------------5-------------------------|-5-----------5----|
   sl.

E|------------|------------------------------------|-----------|
B|-5----------|-----------------------------5------|-----------|
G|-5--p-------|-----------7----5------------5--p---|-------7-5-|
D|---7-5------|---7----7---------------7-7----7-5--|---7-7-----|
A|--------7-5-|-----------------------------------7|-----------|
E|------------|-5-------------------5--------------|-5---------|

E|----------------------------------|
B|-------------/7-7-7--5-5-5--3---2-|
G|-------------/7-7-7--5-5-5--3---2-|
D|------7---------------------------|
A|----------------------------------|
E|---5------------------------------|

Guitar1:Still with delay

E|----------------------------------------------|--------------|
B|----------------5------------------------Н-p--|-------------5|
G|--------5----7--5------------5-----7----5-7-5-|-------5---7-5|
D|---7-7----7-----------7---7-----7-----7-------|---7-7---7----|
A|----------------------------------------------|--------------|
E|-5-----------------5--------------------------|-5------------|

E|--------------5------^-------------|
B|----------/5--5---7--7--7--5⁄------|
G|----------/5--5---7--7--7--5⁄------|
D|-----7-----------------------------|
A|-----------------------------------|
E|--5--------------------------------|

Guitar2:

E|--------------------------------|----------------------------|
B|.-------------------------------|----------------------------|
G|------------------------------5-|----------------------------|
D|---7--5--7--5--7--5--7--5--7----|-7--5--7--5--7--5--7--5-7-5-|
A|.--0--0--0--0--0--0--0--0--0----|-0--0--0--0--0--0--0--0-0---|
E|--------------------------------|----------------------------|

More Coming Soon!

/=slide
Н-Hammer on
p=pull off

POOR TWISTED ME
(Hetfield/Ulrich)

Oh poor twisted me
Oh poor twisted me
I feast on sympathy
I chew on suffer
I chew on agony
And swallow whole the pain
Oh It's too good to be
All this misery
Is just for oh poor twisted me
Poor twisted me

Poor mistreated me
Poor mistreated me
I drown without a sea
I'm filled with sorrow
Once filled with misery
And hated the deep dark blue
Such a burden to bear
Poor mistreated me

Finally reached the shore
Survival's gone
Now your feeling cold ever since he was born
Your pain is so over you

Finally reached the shore
Survival's gone
Now your feeling cold ever since he was born
Your pain is so over you
Could ya be my friend
Such a pain to see
Oh poor twisted me
Oh poor twisted me
Poor twisted me

Тональность:

Это должно быть в ТОП-листе! - Топ-лист композиций



Назад
Рекомендуем посмотреть другие песни исполнителя «Metallica»:

  • Комменты Fb ()
  • Комменты ВК



Добавить в Избранное Браузера
Сохранить здесь Очистить


x

0


+
-

+
-

-

Авторизация





Зарегистрироваться

M

Дата и время

  • 00:21:56
     

Социальные ссылки


Наши приложения

  • Muzbank App Play Market
  • Muzbank Amazon App