MUZBANK


МУЗЫКАЛЬНО-ИНФОРМАЦИОННЫЙ БАНК





MMetallica • Ride The Lightning (аккорды и текст - chords & lyrics)


688

Print

Видео «Ride The Lightning (Metallica)»

Видео клипы к песне подбираются автоматически сайтом youtube. Возможны некоторые несоответствия клипов песне.

↑ Спрятать рекламу ↑






Guilty as charged
But damn it, it ain't right
There's someone else controlling me
Death in the air
Strapped in the electric chair
This can't be happening to me

Who made you God to say,
I'll take your life from you?

Flash before my eyes
Now it's time to die
Burning in my brain
I can feel the flame

Wait for the sign
To flick the switch of death
It's the beginning of the end
Sweat, chilling cold
As I watch death unfold
Consciousness my only friend

My fingers grip with fear
What am I doing here?

Flash before my eyes
Now it's time to die
Burning in my brain
I can feel the flame

Someone help me
Oh please, God help me
They are trying to take it all away
I don't want to die

Time moving slow
The minutes seem like hours
The final curtain call I see
How true is this
Just get it over with
If this is true, just let it be

Wakened by horrid scream
Freed from this frightening dream

Flash before my eyes
Now it's time to die
Burning in my brain
I can feel the flame


Intro/outro:

e--7h8--5h7----------   -------------------
B------------5h7--8p5   -7h8---------------
G--------------------   ------7h9----------
D--------------------   -----------7h9-----
A--------------------   ----------------5h7
E--------------------   -------------------
       guitar 1              guitar 2


Riff 1:
       P.M.    P.M.... 
e-|---------------------|
B-|---------------------|
G-|---------------------|
D-|---------------------|
A-|-7/8-----7/8---------|
E-|-5/6-0-0-5/6-0-0-0-0-|

Riff 2:
                P.M
e-|-------------------|
B-|-------------------|
G-|-------------------|
D-|-----------2-----5-|
A-|-4---2---4-0-4---3-|
E-|-2---0---2---2-2---|

Add 1:
e-|--------|
B-|--------|
G-|--------|
D-|-4------|
A-|-4------|
E-|-2------|

Add 2:
e-|-------|
B-|-------|
G-|-------|
D-|-5---4-|
A-|-3---2-|
E-|-------|

Riff 3:
|---------------------------|
|---------------------------|
|---------------------------|
|---------------------------|
|--2h4------2h4-------------| 
|--2----2-2-2----2-2-2-2----| 

Chorus:
                P.M...........|             P.M.........|
e-|-----------------------------------------------------------|
B-|-----------------------------------------------------------|
G-|-----------------------------------------------------------|
D-|-6---5-4---6-----------------6---5-4---6-------------------|
A-|-4---3-2---4-0-0-0-0-0-0-0-0-4---3-2---4-0-0-0-0-0-0-0-2br-|
E-|-----------------------------------------------------------|

Lead and Rhythm (x3)
|---------------------------------------------|
|---------------------------------------------|
|---------------------------------------------|
|--9-8-7----6----5-----------5--------5-------|
|--7-6-5----4----3-----------5--------5-------|
|---------6----5----4---0000-3-000000-3-00----|


Riff 5:
    P.M...|     |.........|     |.........|     |.........|
e-|-----------------------------------------------------------
B-|-----------------------------------------------------------
G-|-----------------------------------------------------------
D-|---------5---------------5---------------4---------------4-
A-|-4-4-4-4-3---3-3-3-3-3-3-3---3-3-3-3-3-3-2---2-2-2-2-2-2-2-
E-|-----------------------------------------------------------
 
 P.M.......|     |.........|     |.........|     |.........|
---------------------------------------------------------------
---------------------------------------------------------------
---------------------------------------------------------------
-------------3---------------3---------------2---------------2-
-2-2-2-2-2-2-1---1-1-1-1-1-1-1---0-0-0-0-0-0-0---0-0-0-0-0-0-0-
---------------------------------------------------------------

 P.M....|    |.........|     |..........|    |..........|
-------------------------------------------------------------|
-------------------------------------------------------------|
---------------------------------------------------------3---|
---------------------------------------------------------3---|
---------3---------------3---------------5-------1-1-1-1-1---|
-1-1-1-1-1---1-1-1-1-1-1-1---1-1-3-3-3-3-3---3-3-------------|

Riff 6:
         P.M.
e-|----------------|
B-|----------------|
G-|---------5------|
D-|-9\8\7---5------|
A-|-7\6\5---3------|
E-|-------0--------|
 

Add 3:

e-|--------|
B-|--------|
G-|-4------|
D-|-4------|
A-|-2------|
E-|--------|



Rhythm of solo
|-----------------------------|
|-----------------------------|
|-----------5~----------------|
|-----------5~-------5/7-7~---|
|--2~-------3~-------5/7-7~---|
|--0~--0-2------0h2--3/5-5~---|







    T      T
|---------------------|----|
|---------------------|----|
|--12p5h9-12p5h9------|----|
|---------------------|----| x 13
|---------------------|----|
|---------------------|----|
 
Lead
|-----------------------------------------------|
|--10~-10b-10b-10-8-7~-7-8-7h8p7----------------|
|--------------------------------9-7---7-7-9~---|
|------------------------------------9----------|
|-----------------------------------------------|
|-----------------------------------------------|
 

|----------------------------------------------|
|------5--5/-7--7--7-/8--8--8/-10-10-10-10\8---|
|----------------------------------------------|
|------2--2/-4--4--4-/5--5--5/-7--7--7--7-\5---|
|--7\------------------------------------------|
|--7\------------------------------------------|
 

|--------------------------------------------------------------|
|-8-/10-10/-12---12-\10--10-/12--12/-13--13/--15--15/-17--17---|
|--------------------------------------------------------------|
|-5-/7---7/--9---9--\7---7--/9---9/--10--10/--12--12/-14--14---|
|--------------------------------------------------------------|
|--------------------------------------------------------------|
 

|----------------------------------------------------14-19-17b---|
|------------15-17b-17p15-17-15----15~-----15-17-17b-------------|
|--12-14-16~--------------------16------16-----------------------|
|----------------------------------------------------------------|
|----------------------------------------------------------------|
|----------------------------------------------------------------|
 

|--17p14-22b--22-19-22-19----19----------|
|-------------------------22----22b------|
|----------------------------------------|
|----------------------------------------|
|----------------------------------------|
|----------------------------------------|
 

|--14h17p14----14h17p14-------------------17p14-------------|
|-----------17----------17-14----14h17p14-------17-14-------|
|-----------------------------16----------------------16----|
|-----------------------------------------------------------|
|-----------------------------------------------------------|
|-----------------------------------------------------------|
 

|----------------------------------------------------------------|
|--14h17p14------------------------------------------------------|
|-----------16p14-16p14-16p14------------------------------------|
|-----------------------------16-14----14h16p14------------------|
|-----------------------------------16----------16p14----14-14---|
|-----------------------------------------------------17---------|
 

|---------------------------------------------------------|
|--------------------------------------------------14~----|
|-----------------------14h16-16p14----14h16-14h16--------|
|-----------------14h16-------------16--------------------|
|-----------14h15-----------------------------------------|
|--17p14h17-----------------------------------------------|
 

|--17b-17b-17b-17~-17-14----14h17p14--------------------------------|
|------------------------17----------17-141414-17p14----------------|
|----------------------------------------------------16p14----------|
|----------------------------------------------------------14-14----|
|-------------------------------------------------------------------|
|-------------------------------------------------------------------|
 

|-----------------14-17p14-----|
|--------------17--------------|
|--16b-14b---------------------|
|----------16~-----------------|
|------------------------------|
|------------------------------|
 

|-----14-17-19-17p14-----14-17-19p14-17p14-------|
|--17-----------------17-------------------------|
|------------------------------------------------|
|------------------------------------------------| x 2
|------------------------------------------------|
|------------------------------------------------|
 

|-----14-----------------------------------------------------|
|--17----17p14-17p14----14-----------------------------------|
|--------------------16----16p14-16p14----14h16--------------|
|--------------------------------------16-------14-14-16~----|
|------------------------------------------------------------|
|------------------------------------------------------------|
 

|-------------------------------------14h15p14-------------------|
|--------14-15--14h15p14----14-15--17----------17-15-14-15-17----|
|--14-16-----------------16--------------------------------------|
|----------------------------------------------------------------|
|----------------------------------------------------------------|
|----------------------------------------------------------------|
 

|-----------------19----19-20-19-20-22b-22b-22b----|
|--19-20-22-20-22----22----------------------------|
|--------------------------------------------------|
|--------------------------------------------------|
|--------------------------------------------------|
|--------------------------------------------------|
 

|--12-14-16-14-12-14-12----14-12-------------------12----------------|
|-----------------------15-------15-12-15-13-12-13----15-12-15-13----|
|--------------------------------------------------------------------|
|--------------------------------------------------------------------|
|--------------------------------------------------------------------|
|--------------------------------------------------------------------|
 

|---------------------------------|
|-----13-12-------12--------------|
|--14-------14-12----14-12--0w----|
|---------------------------------|
|---------------------------------|
|---------------------------------|
 

|--12b-12b-12b-12b-12b-12b-12b-12b----|
|-------------------------------------|
|-------------------------------------|
|-------------------------------------|
|-------------------------------------|
|-------------------------------------|
 

|--15p12-14p12----12-------------------------------------|
|--------------15----15p14p12-14p12----------------------|
|-----------------------------------14p12----12-14p12----|
|-----------------------------------------14-------------|
|--------------------------------------------------------|
|--------------------------------------------------------|
 

|---------------------11-----------------11--------------------|
|--14b-14b-14b-----12----14-12--------------14-12--------------|
|--14b-14b-14b--13-------------14-13--------------14-13--------|
|------------------------------------11-----------------11-----|
|--------------------------------------------------------------|
|--------------------------------------------------------------|
 

|--12-11--------------12-11-----------------|
|--------14-12--------------14-12-----------|
|--------------14-13--------------14-13-----|
|-------------------------------------------|
|-------------------------------------------|
|-------------------------------------------|
 

|--14-12-11-----------16-14-12-----------17-16-14-----------22b---|
|-----------14-12--------------16-14-12-----------17-16-14--------|
|-----------------14----------------------------------------------|
|-----------------------------------------------------------------|
|-----------------------------------------------------------------|
|-----------------------------------------------------------------|
 

|-----8-12p8----8-12p8----8-12p8----8-12p8----7----|
|--10--------10--------10--------10--------10------|
|--------------------------------------------------|
|--------------------------------------------------|
|--------------------------------------------------|
|--------------------------------------------------|
 

Long play solo:
|--10p7---7-10p7---7-10p7---7-10p7----6-10p6---6-10p6---6-10p6---6-10p6---|
|-------8--------8--------8---------8--------8--------8--------8----------|
|-------------------------------------------------------------------------|
|-------------------------------------------------------------------------|
|-------------------------------------------------------------------------|
|-------------------------------------------------------------------------|
 

|--------9p5-0-5--9p5-0-5--9p5-0-5--9p5-0-----|
|--8-10---------------------------------------|
|---------------------------------------------|
|---------------------------------------------|
|---------------------------------------------|
|---------------------------------------------|
 

|--12p8----8-12p8----8-12p8----8-12p8----7----|
|-------10--------10--------10--------10------|
|---------------------------------------------|
|---------------------------------------------|
|---------------------------------------------|
|---------------------------------------------|
 

|--10p7---7-10p7---7-10p7---7-10p7----6-10p6---6-10p6---6-10p6---6-10p6---|
|-------8--------8--------8---------8--------8--------8--------8----------|
|-------------------------------------------------------------------------|
|-------------------------------------------------------------------------|
|-------------------------------------------------------------------------|
|-------------------------------------------------------------------------|
 

|--------9p5-0-5--9p5-0-5--9p5-0-5--9p5-0-----|
|--8-10---------------------------------------|
|---------------------------------------------|
|---------------------------------------------|
|---------------------------------------------|
|---------------------------------------------|
 

|--13p8----8-13p8----8-13p8----8-13p8----15p10----10-15p10----18p13----|
|-------10--------10--------10--------10-------12----------12----------|
|----------------------------------------------------------------------|
|----------------------------------------------------------------------|
|----------------------------------------------------------------------|
|----------------------------------------------------------------------|
 

|-----13-18p13----20p15----15-20p15-20p15----15-20p15-20p15-----|
|--15----------15-------17----------------17--------------------|
|---------------------------------------------------------------|
|---------------------------------------------------------------|
|---------------------------------------------------------------|
|---------------------------------------------------------------|
 

|-----15-19p15----15-19p15-19p15----15-19p15-19p15---------|
|--17----------17----------------17------------------------|
|----------------------------------------------------------|
|----------------------------------------------------------|
|----------------------------------------------------------|
|----------------------------------------------------------|
 

|-----15-18p15----15-18p15-18p15----15-18p15-18p15---------|
|--17----------17----------------17------------------------|
|----------------------------------------------------------|
|----------------------------------------------------------|
|----------------------------------------------------------|
|----------------------------------------------------------|
 

|-----15-17p15----15-17p15-17p15----15-17p15-17p15--17-----|
|--17----------17----------------17------------------------|
|----------------------------------------------------------|
|----------------------------------------------------------|
|----------------------------------------------------------|
|----------------------------------------------------------|
 

|--13p8----8-13p8-13p8----8-13p8-13p8----15p10----10-15p10----|
|-------10-------------10-------------10-------12-------------|
|-------------------------------------------------------------|
|-------------------------------------------------------------|
|-------------------------------------------------------------|
|-------------------------------------------------------------|
 
solo end
|-----18p13----13-18p13-----12b-12b-12b-12b-----|
|--12-------15----------15----------------------|
|-----------------------------------------------|
|-----------------------------------------------|
|-----------------------------------------------|
|-----------------------------------------------|
 



Rhythm 1 for solo
|-----------------------------|---------|
|-----------------------------|---------|
|-----------5~----------------|---------|
|--2~-------5~-------5/7-7~---|---- x 4-|
|--2~-------3~-------5/7-7~---|---------|
|--0~--0-2------0h2--3/5-5~---|---------|
 
Rhythm 2 for solo
|------------------------------------------------------|---------|
|------------------------------------------------------|---------|
|------------------------------------------------------|---------|
|--------------7-----7-----2-4---4-----4-----4---------|---- x 4-|
|--4-----4---0-5-5-5-5-----0-2-2-2-2-2-2-2-2-2-2-2-----|---------|
|--2-2-2-2-4-----------2-4-----------------------------|---------|
 
Rhythm 3 for solo
|--------------------------|---------|
|--------------------------|---------|
|--2-2-2-------------------|---------|
|--2-2-2--5-5--3~----------|---- x 1-|
|--0-0-0--5-5--3~----------|---------|
|---------3-3--1~----------|---------|
 
Rhythm 4 for solo
|----------------------------------------------|---------|
|----------------------------------------------|---------|
|------------------------------------4-5-4-----|---------|
|------------------------------------4-5-4-----|---- x 4-|
|------------------------------------2-3-2-----|---------|
|--000000-3p0-000000-3p0-000000-3p0------------|---------|
 
Rhythm 5 for solo
|------------------------------------------------------|
|------------------------------------------------------|
|------------------------------------------------------|
|---------10------------10-----------9--------9--------|
|---------10------------10-----------9--------9--------|
|--8-8-8-8-8-8-8-8-8-8-8-8-8-8--7777-7-777777-7-77-----|
 
|------------------------------------------------------|
|------------------------------------------------------|
|------------------------------------------------------|
|-------8--------8----------7--------7-----------------|
|-------8--------8----------7--------7-----------------|
|--6666-6-666666-6-66--5555-5-555555-5-00--------------|
 
Rhythm 6 for solo
|------------------------------------------------------|
|------------------------------------------------------|
|------------------------------------------------------|
|---------10------------10-----------9--------9--------|
|---------10------------10-----------9--------9--------|
|--8-8-8-8-8-8-8-8-8-8-8-8-8-8--7777-7-777777-7-77-----|
 
|------------------------------------------------------|
|------------------------------------------------------|
|------------------------------------------------------|
|-------8--------8----------7--------7-----------------|
|-------8--------8----------7--------7-----------------|
|--6666-6-666666-6-66--5555-5-555555-5-55--------------|
 
|---------------------------------------------------------------------|
|---------------------------------------------------------------------|
|---------10------------10--------------------------------------------|
|---------10------------10-----------------12---------------8---------|
|--8-8-8-8-8-8-8-8-8-8-8-8-8-8-------------12---------------8---------|
|------------------------------10-10-10-10-10-10-10-6-6-6-6-6-6-6-----|
 
Rhythm for solo ending
|------------------------------------------------------|
|------------------------------------------------------|
|------------------------------------------------------|
|---------10------------10-----------9--------9--------|
|---------10------------10-----------9--------9--------|
|--8-8-8-8-8-8-8-8-8-8-8-8-8-8--7777-7-777777-7-77-----|
 
|------------------------------------------------------|
|------------------------------------------------------|
|------------------------------------------------------|
|-------8--------8----------7--------7-----------------|
|-------8--------8----------7--------7-----------------|
|--6666-6-666666-6-66--5555-5-555555-5-55--------------|
 
|---------------------------------------------|
|---------------------------------------------|
|---------------------------------------------|
|-------3--------3----------5----------8------|
|-------3--------3----------5----------8------|
|--1111-1-111111-1-11--3333-3-33--6666-6-66---|
 
 
Lead and Rhythm
 
|---------------------------------------| 
|---------------------------------------| 
|---------------------------------------| 
|---------------------------------------| 
|--7/8-------7/8-------10-9--8--10-9----| 
|--5/6--0-0--5/6--0-0---8-7--6---8-7----| 
 

Тональность:

Это должно быть в ТОП-листе! - Топ-лист композиций



Назад
Рекомендуем посмотреть другие песни исполнителя «Metallica»:

  • Комменты Fb ()
  • Комменты ВК



Добавить в Избранное Браузера
Сохранить здесь Очистить


x

0


+
-

+
-

-

Авторизация





Зарегистрироваться

M

Дата и время

  • 09:33:09
     

Социальные ссылки


Наши приложения

  • Muzbank App Play Market
  • Muzbank Amazon App