MUZBANK


МУЗЫКАЛЬНО-ИНФОРМАЦИОННЫЙ БАНК





MMetallica • Ronnie (аккорды и текст - chords & lyrics)


507

Print

Видео «Ronnie (Metallica)»

Видео клипы к песне подбираются автоматически сайтом youtube. Возможны некоторые несоответствия клипов песне.

↑ Спрятать рекламу ↑





tune all guitars down 1/2 step

Eb------------------------------------------0-0-0----|
Bb----------------------1-------------------2/3⁄2----|
Gb----0Н3-2---0Н3-2---------0Н3-2----0Н3-2-----------|
Db---------------------------------------------------|
Ab-0--------0--------0----0--------0-----------------|
Eb---------------------------------------------------|
**********
Eb----------------------0---------------------|
Bb------------------1-/-5--3--5p3p0-----1--3--|
Gb--0Н3-2----0Н3-2-------------------2--------|
Db--------------------------------------------|
Ab--------0-----------------------------------|
Eb--------------------------------------------|
(that's the Проигрыш *on the (( 0Н3 2 ))
part you have to play with )
(your 3rd fret harmonics instead of actually hitting fret 3)

Eb----------------------------------------------------|
Bb----------------------------------------------------|
Gb---2----2----2-------------2----2----2--------------|
Db------------------0Н2---------------------0Н2-------|
Ab-0----0----0----3-----3p0----0----0-----3------3p0--|
Eb----------------------------------------------------|
(repeat 4X)

Gb--5---4---------2-|
Db--5---4---5-5---2-|
Ab--3---2---5-5---0-|
Eb--------x-3-3-----|

RONNIE
(Hetfield/Ulrich)

Stories taught
Quiet town
Small time for big time crowd
Never talks
Never plays
Different path
Lost his way

The streets are red
Red I'm afraid
There's no confetti
No parade
Nothing happens in this boring place
But oh my god how it all dismays
And they all pray
Blood stain wash away

He said
"Lost my way
This bloody day
Lost my way"
I heard it
He said
"Lost my way
This bloody day
Lost my way"
Oh please wash away
But blood stains the sun red today

I always said
Something wrong
Little strange
All day long
Never laugh
Never smile
Talked alone for miles and miles and miles

Yellow comes
Sun I say
Keep your smile and laugh all day
He falls again in this foreign place
For little boys how they do chase
And they all pray
Blood stain wash away

He said
"Lost my way
This bloody day
Lost my way"
I Heard it
He said
"Lost my way
This bloody day
Lost my way"
Oh please wash away
But blood stains the sun red today

Yeah, well all the green things died
When Ronnie moved to this place
He said
"Don't you dare ask
Why I'm cursed to wear this face"
I know why the children called him Ronnie frown
When he pulled that gun from his pocket
They all fall down down down

He said
"Lost my way
This bloody day
Lost my way"
I heard it
He screamed
"Lost my way

This bloody day
Lost my way"
Oh please wash away
But blood stains the sun red today

All things wash away
They all fall down
But blood stains the sun today

All things wash away
They all fall down
But blood stains the sun today

Тональность:

Это должно быть в ТОП-листе! - Топ-лист композиций



Назад
Рекомендуем посмотреть другие песни исполнителя «Metallica»:

  • Комменты Fb ()
  • Комменты ВК



Добавить в Избранное Браузера
Сохранить здесь Очистить


x

0


+
-

+
-

-

Авторизация





Зарегистрироваться

M

Дата и время

  • 07:10:49
     

Социальные ссылки


Наши приложения

  • Muzbank App Play Market
  • Muzbank Amazon App