MUZBANK


МУЗЫКАЛЬНО-ИНФОРМАЦИОННЫЙ БАНК





MMetallica • Seek and Destroy (аккорды и текст - chords & lyrics)


557

Print

Видео «Seek and Destroy (Metallica)»

Видео клипы к песне подбираются автоматически сайтом youtube. Возможны некоторые несоответствия клипов песне.

↑ Спрятать рекламу ↑





E -------------------|---------------|-------------------|------------
B -----3-4-3---------|-----------1---|-----3-4-3---------|-----------1
G -------------2-3-2-|-------0-----2-|-------------2-3-2-|-------0----
D -------------------|---3-2---2-----|-------------------|---3-2---2--
A -0-0-------0-------|-0-------------|-0-0-------0-------|-0----------
E -------------------|---------------|-------------------|------------

E ---|-------------------|---------------|-------------------|--------
B ---|-----3-4-3---------|-----------1---|-----3-4-3---------|--------
G -2-|-------------2-3-2-|-------0-----2-|-------------2-3-2-|-------0
D ---|-------------------|---3-2---2-----|-------------------|---3-2--
A ---|-0-0-------0-------|-0-------------|-0-0-------0-------|-0------
E ---|-------------------|---------------|-------------------|--------

E -------|-------------------|---------------|-------------------|----
B ---1---|-----3-4-3---------|-----------1---|-----3-4-3---------|----
G -----2-|-------------2-3-2-|-------0-----2-|-------------2-3-2-|----
D -2-----|-------------------|---3-2---2-----|-------------------|---3
A -------|-0-0-------0-------|-0-------------|-0-0-------0-------|-0--
E -------|-------------------|---------------|-------------------|----

E -----------|-------------------|---------------|-------------------|
B -------1---|-----3-4-3---------|-----------1---|-----3-4-3---------|
G ---0-----2-|-------------2-3-2-|-------0-----2-|-------------2-3-2-|
D -2---2-----|-------------------|---3-2---2-----|-------------------|
A -----------|-0-0-------0-------|-0-------------|-0-0-------0-------|
E -----------|-------------------|---------------|-------------------|

E ---------------|-0---------------|-----------------|----------------
B -----------1---|---3-0-3-0-------|-----------------|----------------
G -------0-----2-|-----------3-2-0-|---------0-2-0-2-|----------------
D ---3-2---2-----|-----------------|---------0-2-0-2-|---------2-0----
A -0-------------|-----------------|-----------------|-------------2-1
E ---------------|-----------------|-0-0-0-0---------|-0-0-0-0--------

E -|-----------------|-----------------|-----------------|------------
B -|-----------------|-----------------|-----------------|------------
G -|---------0-2-0-2-|-----------------|---------0-2-0-2-|------------
D -|---------0-2-0-2-|---------2-0-----|---------0-2-0-2-|---------2-0
A -|-----------------|-------------2-1-|-----------------|------------
E -|-0-0-0-0---------|-0-0-0-0---------|-0-0-0-0---------|-0-0-0-0----

E -----|-----------------|-----------------|-----------------|--------
B -----|-----------------|-----------------|-----------------|--------
G -----|---------0-2-0-2-|-----------------|---------0-2-0-2-|--------
D -----|---------0-2-0-2-|---------2-0-----|---------0-2-0-2-|--------
A -2-1-|-----------------|-------------2-1-|-----------------|--------
E -----|-0-0-0-0---------|-0-0-0-0---------|-0-0-0-0---------|-0-0-0-0

E ---------|-----------------|-----------------|-----------------|----
B ---------|-----------------|-----------------|-----------------|----
G ---------|---------0-2-0-2-|-----------------|---------0-2-0-2-|----
D -2-0-----|---------0-2-0-2-|---------2-0-----|---------0-2-0-2-|----
A -----2-1-|-----------------|-------------2-1-|-----------------|----
E ---------|-0-0-0-0---------|-0-0-0-0---------|-0-0-0-0---------|-0-0

E -------------|-----------------|-----------------|-----------------|
B -------------|-----------------|-----------------|-----------------|
G -------------|---------0-2-0-2-|-----------------|-----------------|
D -----2-0-----|---------0-2-0-2-|---------2-0-----|-----------------|
A ---------2-1-|-----------------|-------------2-1-|-----------------|
E -0-0---------|-0-0-0-0---------|-0-0-0-0---------|-0-0-0-0-0-0-0-0-|

E -----------------|-----------------|-----------------|--------------
B -----------------|-----------------|-----------------|--------------
G -------------0---|-----------------|-------------0---|--------------
D ---------------2-|-----------------|---------------2-|--------------
A ---------2-1-----|-----------------|---------2-1-----|--------------
E -0-0-0-0---------|-0-0-0-0-0-0-0-0-|-0-0-0-0---------|-0-0-0-0-0-0-0

E ---|-----------------|-----------------|-----------------|----------
B ---|-----------------|-----------------|-----------------|----------
G ---|-------------0---|-----------------|-------------0---|----------
D ---|---------------2-|-----------------|---------------2-|----------
A ---|---------2-1-----|-----------------|---------2-1-----|----------
E -0-|-0-0-0-0---------|-0-0-0-0-0-0-0-0-|-0-0-0-0---------|-0-0-0-0-0

E -------|-----------------|-----------------|-----------------|------
B -------|-----------------|-----------------|-----------------|------
G -------|-------------0---|-----------------|-------------0---|------
D -------|---------------2-|-----------------|---------------2-|------
A -------|---------2-1-----|-----------------|---------2-1-----|------
E -0-0-0-|-0-0-0-0---------|-0-0-0-0-0-0-0-0-|-0-0-0-0---------|-0-0-0

E -----------|-----------------|-----------------|-----------------|--
B -----------|-----------------|-----------------|-----------------|-1
G -----------|-------------0---|-----------------|-------------0---|-0
D -----------|---------------2-|-----------------|---------------2-|--
A -----------|---------2-1-----|-----------------|---------2-1-----|--
E -0-0-0-0-0-|-0-0-0-0---------|-0-0-0-0-0-0-0-0-|-0-0-0-0---------|--

E -------------|---------------|---------------|-----------------|----
B -------1-3-1-|-1-------1-3-1-|-1-------1-3-1-|-3-1-------------|-1--
G -------0-2-0-|-0-------0-2-0-|-0-------0-2-0-|-----2-1-0-------|-0--
D -------------|---------------|---------------|-----------2-1-0-|----
A -------------|---------------|---------------|-----------------|----
E -0-0-0-------|---0-0-0-------|---0-0-0-------|-----------------|---0

E -----------|---------------|---------------|-0---------------|-0----
B -----1-3-1-|-1-------1-3-1-|-1-------1-3-1-|---3-0-3-0-------|---3-0
G -----0-2-0-|-0-------0-2-0-|-0-------0-2-0-|-----------3-2-0-|------
D -----------|---------------|---------------|-----------------|------
A -----------|---------------|---------------|-----------------|------
E -0-0-------|---0-0-0-------|---0-0-0-------|-----------------|------

E -----------|---|-----|-----------------|-----------------|---|-----|
B -3-0-------|-3-|-2-1-|-----------------|-----------------|-3-|-2-1-|
G -----3-2-0-|-0-|-----|-----------------|-----------------|-0-|-----|
D -----------|---|-4-3-|-----------------|-----------------|---|-4-3-|
A -----------|---|-----|-----------------|-----------------|---|-----|
E -----------|---|-----|-0-0-0-0-0-0-0-0-|-0-0-0-0-0-0-0-0-|---|-----|

E -----------------|-----------------|---|-----|-----------------|----
B -----------------|-----------------|-3-|-2-1-|-----------------|----
G -----------------|-----------------|-0-|-----|-----------------|----
D -----------------|-----------------|---|-4-3-|-----------------|----
A -----------------|-----------------|---|-----|-----------------|----
E -0-0-0-0-0-0-0-0-|-0-0-0-0-0-0-0-0-|---|-----|-0-0-0-0-0-0-0-0-|-0-0

E -------------|---|-----|-----------------|-----------------|--------
B -------------|-3-|-2-1-|-----------------|-----------------|--------
G -------------|-0-|-----|---------0-2-0-2-|-----------------|--------
D -------------|---|-4-3-|---------0-2-0-2-|---------2-0-----|--------
A -------------|---|-----|-----------------|-------------2-1-|--------
E -0-0-0-0-0-0-|---|-----|-0-0-0-0---------|-0-0-0-0---------|-0-0-0-0

E ---------|-----------------|-----------------|-----------------|----
B ---------|-----------------|-----------------|-----------------|----
G -0-2-0-2-|-----------------|---------0-2-0-2-|-----------------|----
D -0-2-0-2-|---------2-0-----|---------0-2-0-2-|---------2-0-----|----
A ---------|-------------2-1-|-----------------|-------------2-1-|----
E ---------|-0-0-0-0---------|-0-0-0-0---------|-0-0-0-0---------|-0-0

E -------------|-----------------|-----------------|-----------------|
B -------------|-----------------|-----------------|-----------------|
G -----0-2-0-2-|-----------------|-----------------|-------------0---|
D -----0-2-0-2-|---------2-0-----|-----------------|---------------2-|
A -------------|-------------2-1-|-----------------|---------2-1-----|
E -0-0---------|-0-0-0-0---------|-0-0-0-0-0-0-0-0-|-0-0-0-0---------|

E -----------------|-----------------|-----------------|--------------
B -----------------|-----------------|-----------------|--------------
G -----------------|-------------0---|-----------------|-------------0
D -----------------|---------------2-|-----------------|--------------
A -----------------|---------2-1-----|-----------------|---------2-1--
E -0-0-0-0-0-0-0-0-|-0-0-0-0---------|-0-0-0-0-0-0-0-0-|-0-0-0-0------

E ---|-----------------|-----------------|---------------|------------
B ---|-----------------|-----------------|-1-------1-3-1-|-1-------1-3
G ---|-----------------|-------------0---|-0-------0-2-0-|-0-------0-2
D -2-|-----------------|---------------2-|---------------|------------
A ---|-----------------|---------2-1-----|---------------|------------
E ---|-0-0-0-0-0-0-0-0-|-0-0-0-0---------|---0-0-0-------|---0-0-0----

E ---|---------------|-----------------|---------------|--------------
B -1-|-1-------1-3-1-|-3-1-------------|-1-------1-3-1-|-1-------1-3-1
G -0-|-0-------0-2-0-|-----2-1-0-------|-0-------0-2-0-|-0-------0-2-0
D ---|---------------|-----------2-1-0-|---------------|--------------
A ---|---------------|-----------------|---------------|--------------
E ---|---0-0-0-------|-----------------|---0-0-0-------|---0-0-0------

E -|---------------|-0---------------|-0---------------|---|-----|----
B -|-1-------1-3-1-|---3-0-3-0-------|---3-0-3-0-------|-3-|-2-1-|----
G -|-0-------0-2-0-|-----------3-2-0-|-----------3-2-0-|-0-|-----|----
D -|---------------|-----------------|-----------------|---|-4-3-|----
A -|---------------|-----------------|-----------------|---|-----|----
E -|---0-0-0-------|-----------------|-----------------|---|-----|-0-0

E -------------|-----------------|---|-----|-----------------|--------
B -------------|-----------------|-3-|-2-1-|-----------------|--------
G -------------|-----------------|-0-|-----|-----------------|--------
D -------------|-----------------|---|-4-3-|-----------------|--------
A -------------|-----------------|---|-----|-----------------|--------
E -0-0-0-0-0-0-|-0-0-0-0-0-0-0-0-|---|-----|-0-0-0-0-0-0-0-0-|-0-0-0-0

E ---------|---|-----|-----------------|-----------------|---|-----|-0
B ---------|-3-|-2-1-|-----------------|-----------------|-3-|-2-1-|-0
G ---------|-0-|-----|-----------------|-----------------|-0-|-----|--
D ---------|---|-4-3-|-----------------|-----------------|---|-4-3-|-2
A ---------|---|-----|-----------------|-----------------|---|-----|--
E -0-0-0-0-|---|-----|-0-0-0-0-0-0-0-0-|-0-0-0-0-0-0-0-0-|---|-----|-0

E -|-4-|------|------|------|-----------------|-----------------|-----
B -|-5-|------|------|------|-----------------|-1---------------|-0---
G -|-4-|------|------|------|-0-2---2-----2---|-0-----2-----2---|-----
D -|-2-|------|------|------|-----------------|-----------------|-4---
A -|---|------|------|------|-0-0-0---0-0---0-|---0-0---0-0---0-|---0-
E -|---|------|------|------|-----------------|-----------------|-----

E ----------|-----------------|-----------------|-----------------|---
B ----------|-----------------|-----------------|-1---------------|-0-
G --2-----2-|-----------------|-0-----2-----2---|-0-----2-----2---|---
D ----------|-------3-2-0-----|-----------------|-----------------|-4-
A 0---0-0---|-3-2-0-------3-0-|---0-0---0-0---0-|---0-0---0-0---0-|---
E ----------|-----------------|-----------------|-----------------|---

E ------------|-----------------|-----------------|-----------------|-
B ------------|-----------------|-----------------|-1---------------|-
G ----2-----2-|-----------------|-0-----2-----2---|-0-----2-----2---|-
D ------------|-------3-2-0-----|-----------------|-----------------|-
A 0-0---0-0---|-3-2-0-------3-0-|---0-0---0-0---0-|---0-0---0-0---0-|-
E ------------|-----------------|-----------------|-----------------|-

E --------------|-----------------|-----------------|-----------------
B 0-------------|-----------------|-----------------|-1---------------
G ------2-----2-|-----------------|-0-----2-----2---|-0-----2-----2---
D 4-------------|-------3-2-0-----|-----------------|-----------------
A --0-0---0-0---|-3-2-0-------3-0-|---0-0---0-0---0-|---0-0---0-0---0-
E --------------|-----------------|-----------------|-----------------

E |---------------|-----------------|---|-----|-----------------|-----
B |-0-------------|-----------------|-3-|-2-1-|-----------------|-----
G |-------2-----2-|-----------------|-0-|-----|-----------------|-----
D |-4-------------|-------3-2-0-----|---|-4-3-|-----------------|-----
A |---0-0---0-0---|-3-2-0-------3-0-|---|-----|-----------------|-----
E |---------------|-----------------|---|-----|-0-0-0-0-0-0-0-0-|-0-0-

E ------------|---|-----|-----------------|-----------------|---|-----
B ------------|-3-|-2-1-|-----------------|-----------------|-3-|-2-1-
G ------------|-0-|-----|-----------------|-----------------|-0-|-----
D ------------|---|-4-3-|-----------------|-----------------|---|-4-3-
A ------------|---|-----|-----------------|-----------------|---|-----
E 0-0-0-0-0-0-|---|-----|-0-0-0-0-0-0-0-0-|-0-0-0-0-0-0-0-0-|---|-----

E |-----------------|-----------------|---|-----|-----------------|---
B |-----------------|-----------------|-3-|-2-1-|-----------------|---
G |-----------------|-----------------|-0-|-----|-----------------|-0-
D |-----------------|-----------------|---|-4-3-|-0-2---2-----2---|-0-
A |-----------------|-----------------|---|-----|-----------------|---
E |-0-0-0-0-0-0-0-0-|-0-0-0-0-0-0-0-0-|---|-----|-----0---0-0---0-|---

E --------------|---------------|-----------------|-----------------|-
B --------------|---------------|-----------------|-----------------|-
G --------------|---------------|-----------------|-----------------|-
D ----2-----2---|-4-----2-----2-|-----------------|-0-2---2-----2---|-
A --------------|-4-------------|-------3-2-0-----|-----------------|-
E 0-0---0-0---0-|---0-0---0-0---|-3-2-0-------3-0-|-----0---0-0---0-|-

E ----------------|---------------|-----------------|-----------------
B ----------------|---------------|-----------------|-----------------
G 0---------------|---------------|-----------------|-----------------
D 0-----2-----2---|-4-----2-----2-|-----------------|-0-2---2-----2---
A ----------------|-4-------------|-------3-2-0-----|-----------------
E --0-0---0-0---0-|---0-0---0-0---|-3-2-0-------3-0-|-----0---0-0---0-

E |-----------------|---------------|-----------------|---------------
B |-----------------|---------------|-----------------|---------------
G |-0---------------|---------------|-----------------|---------------
D |-0-----2-----2---|-4-----2-----2-|-----------------|-0-2---2-----2-
A |-----------------|-4-------------|-------3-2-0-----|---------------
E |---0-0---0-0---0-|---0-0---0-0---|-3-2-0-------3-0-|-----0---0-0---

E --|-----------------|---------------|-----------------|-------------
B --|-----------------|---------------|-----------------|-------------
G --|-0---------------|---------------|-----------------|-------------
D --|-0-----2-----2---|-4-----2-----2-|-----------------|-------------
A --|-----------------|-4-------------|-------3-2-0-----|-------3-2-0-
E 0-|---0-0---0-0---0-|---0-0---0-0---|-3-2-0-------3-2-|-3-2-0-------

E ----|---|-------------------|---------------|-------------------|---
B ----|---|-----3-4-3---------|-----------1---|-----3-4-3---------|---
G ----|-2-|-------------2-3-2-|-------0-----2-|-------------2-3-2-|---
D ----|-2-|-------------------|---3-2---2-----|-------------------|---
A ----|-0-|-0-0-------0-------|-0-------------|-0-0-------0-------|-0-
E 3-2-|---|-------------------|---------------|-------------------|---

E ------------|-------------------|---------------|-------------------
B --------1---|-----3-4-3---------|-----------1---|-----3-4-3---------
G ----0-----2-|-------------2-3-2-|-------0-----2-|-------------2-3-2-
D 3-2---2-----|-------------------|---3-2---2-----|-------------------
A ------------|-0-0-------0-------|-0-------------|-0-0-------0-------
E ------------|-------------------|---------------|-------------------

E |---------------|-------------------|---------------|---------------
B |-----------1---|-----3-4-3---------|-----------1---|-----3-4-3-----
G |-------0-----2-|-------------2-3-2-|-------0-----2-|-------------2-
D |---3-2---2-----|-------------------|---3-2---2-----|---------------
A |-0-------------|-0-0-------0-------|-0-------------|-0-0-------0---
E |---------------|-------------------|---------------|---------------

E ----|---------------|-------------------|---------------|-----------
B ----|-----------1---|-----3-4-3---------|-----------1---|-----3-4-3-
G 3-2-|-------0-----2-|-------------2-3-2-|-------0-----2-|-----------
D ----|---3-2---2-----|-------------------|---3-2---2-----|-----------
A ----|-0-------------|-0-0-------0-------|-0-------------|-0-0-------
E ----|---------------|-------------------|---------------|-----------

E --------|---------------|-0---------------|-----------------|-------
B --------|-----------1---|---3-0-3-0-------|-----------------|-------
G --2-3-2-|-------0-----2-|-----------3-2-0-|---------0-2-0-2-|-------
D --------|---3-2---2-----|-----------------|---------0-2-0-2-|-------
A 0-------|-0-------------|-----------------|-----------------|-------
E --------|---------------|-----------------|-0-0-0-0---------|-0-0-0-

E ----------|-----------------|-----------------|-----------------|---
B ----------|-----------------|-----------------|-----------------|---
G ----------|---------0-2-0-2-|-----------------|---------0-2-0-2-|---
D --2-0-----|---------0-2-0-2-|---------2-0-----|---------0-2-0-2-|---
A ------2-1-|-----------------|-------------2-1-|-----------------|---
E 0---------|-0-0-0-0---------|-0-0-0-0---------|-0-0-0-0---------|-0-

E --------------|-----------------|-----------------|-----------------
B --------------|-----------------|-----------------|-----------------
G --------------|---------0-2-0-2-|-----------------|-----------------
D ------2-0-----|---------0-2-0-2-|---------2-0-----|-----------------
A ----------2-1-|-----------------|-------------2-1-|-----------------
E 0-0-0---------|-0-0-0-0---------|-0-0-0-0---------|-0-0-0-0-0-0-0-0-

E |-----------------|-----------------|-----------------|-------------
B |-----------------|-----------------|-----------------|-------------
G |-------------0---|-----------------|-------------0---|-------------
D |---------------2-|-----------------|---------------2-|-------------
A |---------2-1-----|-----------------|---------2-1-----|-------------
E |-0-0-0-0---------|-0-0-0-0-0-0-0-0-|-0-0-0-0---------|-0-0-0-0-0-0-

E ----|-----------------|-----------------|-----------------|---------
B ----|-----------------|-----------------|-----------------|-1-------
G ----|-------------0---|-----------------|-------------0---|-0-------
D ----|---------------2-|-----------------|---------------2-|---------
A ----|---------2-1-----|-----------------|---------2-1-----|---------
E 0-0-|-0-0-0-0---------|-0-0-0-0-0-0-0-0-|-0-0-0-0---------|---0-0-0-

E ------|---------------|---------------|-----------------|-----------
B 1-3-1-|-1-------1-3-1-|-1-------1-3-1-|-3-1-------------|-1-------1-
G 0-2-0-|-0-------0-2-0-|-0-------0-2-0-|-----2-1-0-------|-0-------0-
D ------|---------------|---------------|-----------2-1-0-|-----------
A ------|---------------|---------------|-----------------|-----------
E ------|---0-0-0-------|---0-0-0-------|-----------------|---0-0-0---

E ----|---------------|---------------|-0---------------|-0-----------
B 3-1-|-1-------1-3-1-|-1-------1-3-1-|---3-0-3-0-------|---3-0-3-0---
G 2-0-|-0-------0-2-0-|-0-------0-2-0-|-----------3-2-0-|-----------3-
D ----|---------------|---------------|-----------------|-------------
A ----|---------------|---------------|-----------------|-------------
E ----|---0-0-0-------|---0-0-0-------|-----------------|-------------

E ----|---|-----|-----------------|-----------------|---|-----|-------
B ----|-3-|-2-1-|-----------------|-----------------|-3-|-2-1-|-------
G 2-0-|-0-|-----|-----------------|-----------------|-0-|-----|-------
D ----|---|-4-3-|-----------------|-----------------|---|-4-3-|-------
A ----|---|-----|-----------------|-----------------|---|-----|-------
E ----|---|-----|-0-0-0-0-0-0-0-0-|-0-0-0-0-0-0-0-0-|---|-----|-0-0-0-

E ----------|-----------------|---|-----|-----------------|-----------
B ----------|-----------------|-3-|-2-1-|-----------------|-----------
G ----------|-----------------|-0-|-----|-----------------|-----------
D ----------|-----------------|---|-4-3-|-----------------|-----------
A ----------|-----------------|---|-----|-----------------|-----------
E 0-0-0-0-0-|-0-0-0-0-0-0-0-0-|---|-----|-0-0-0-0-0-0-0-0-|-0-0-0-0-0-

E ------|---|-----|-----------------|-----------------|---------------
B ------|-3-|-2-1-|-0---------------|---------------3-|-2-----2-1-----
G ------|-0-|-----|-----------------|---------------0-|---------------
D ------|---|-4-3-|-2---------------|-----------------|-4-----4-3-----
A ------|---|-----|-----------------|-----------------|---------------
E 0-0-0-|---|-----|---0-0-0-0-0-0-0-|-0-0-0-0-0-0-0---|---0-0-----0-0-

E --|-----------------|-----------------|-----------------|-----------
B 1-|---------------3-|-2-----2---------|---------------3-|-2-----2-1-
G --|---------------0-|---------2-----2-|---------------0-|-----------
D 3-|-----------------|-4-----4-0-----0-|-----------------|-4-----4-3-
A --|-2---------------|-----------------|-2---------------|-----------
E --|-0-0-0-0-0-0-0---|---0-0-----0-0---|-0-0-0-0-0-0-0---|---0-0-----

E ------|-----------------|-----------------|-----------------|-------
B ----1-|---------------3-|-2-----2---------|---------------3-|-2-----
G ------|---------------0-|---------2-----2-|---------------0-|-------
D ----3-|-----------------|-4-----4-0-----0-|-----------------|-4-----
A ------|-2---------------|-----------------|-2---------------|-------
E 0-0---|-0-0-0-0-0-0-0---|---0-0-----0-0---|-0-0-0-0-0-0-0---|---0-0-

E ----------|-----------------|-----------------|-----------------|---
B 2-1-----1-|---------------3-|-2-----2---------|---------------3-|-2-
G ----------|---------------0-|---------2-----2-|---------------0-|---
D 4-3-----3-|-----------------|-4-----4-0-----0-|-----------------|-4-
A ----------|-2---------------|-----------------|-2---------------|---
E ----0-0---|-0-0-0-0-0-0-0---|---0-

Тональность:

Это должно быть в ТОП-листе! - Топ-лист композиций



Назад
Рекомендуем посмотреть другие песни исполнителя «Metallica»:

  • Комменты Fb ()
  • Комменты ВК



Добавить в Избранное Браузера
Сохранить здесь Очистить


x

0


+
-

+
-

-

Авторизация





Зарегистрироваться

M

Дата и время

  • 08:56:27
     

Социальные ссылки


Наши приложения

  • Muzbank App Play Market
  • Muzbank Amazon App