MUZBANK


МУЗЫКАЛЬНО-ИНФОРМАЦИОННЫЙ БАНК





MMetallica • Struggle Within (аккорды и текст - chords & lyrics)


293

Print

Видео «Struggle Within (Metallica)»

Видео клипы к песне подбираются автоматически сайтом youtube. Возможны некоторые несоответствия клипов песне.

↑ Спрятать рекламу ↑






 


#
 
 
 
 Date: Fri, 6 Dec 1996 20:32:37 GMT+01DST
 From: "Holka Pavel - MO,,student,UID=17361" 
 Subject: TAB: STRUGGLE WITHIN - METALLICA
 
 
                    Struggle within - Metallica
                    Transcribed by Pavel Holka
 
 
 Moderate rocks =144
 
 CHORD EXPLANATION:
 !         = 1/8 beat pause
 E5  /  /  = strike this chord for 3 times(/ means strike for 1/8beat)
             (I don`t bother with making tablature rhythm guitar ,but
              this is sufficient,and actually the same)
 sl.       = slide the first chord to the second one
 
 TABULATURE EXPLANATION:
 P.M..... = Palm mute
 /        = slide up
         = slide down
 ^        = hammer ons,pull offs
 F        = full bend (whole step)
 FR       = full bend and relaese
 `        = half bend (half step)
 ~~~~~~   = vibrato (tremolo or with left hand)
 X        = muffled string
 
 EACH BAR MEANS 4 BEATS
 guitarI:
 starting 3 Bars only with drums                        B5
 ---------------|---------------|---------------|-----------------|
 ---------------|---------------|---------------|-----------------|
 ---------------|---------------|---------------|-----------------|
 ---------------|---------------|---------------|------------9---|
 ---------------|---------------|---------------|------------9---|
 ---------------|---------------|---------------|------------7---|
 *****************************************************************
 
 GuitarI                         w/Fill1                        3x
 P.M. ........................................
 E5/ ! / / / / / / / ! / / !! /  / / ! / / / / / D5/ ! / / ! B5
 ---------------|---------------|---------------|-----------------|
 ---------------|---------------|---------------|-----------------|
 *--------------|---------------|---------------|-7--------------*|
 -2-------------|---------------|---------------|-7----------9---|
 *2-------------|---------------|---------------|-5----------9--*|
 -0-------------|---------------|---------------|------------7---|
 
                                 Fill1 (guitarIII) H  ~~~~~~~~~~
                                |-----------7-8-|-8^10----------|
                                |---------------|---------------|
                                |---------------|---------------|
                                |---------------|---------------|
                                |---------------|---------------|
                                |---------------|---------------|
 
                                                                3x
 guitarII                                          ~~~~~~~~~~~~
 ---------------|---------------|---------------|-----------------|
 ---------------|-7-8-7---------|-7-8----7--7-8-|10---------------|
 *-------7------|-7-9-7---------|-----9---------|----------------*|
 -/7--9--5----9-|---------------|--------9------|--------------9--|
 */5--7-------7-|---------------|---------------|--------------9-*|
 ---------------|---------------|---------------|--------------7--|
 
 Between this star lines is everything played together!!
                   |
                   |
 *****************************************************************
 
 guitarI
 E5/ ! / / / / / / / ! /                      ~~~~~~~~~~~~~~~
 ---------------|--------12-----|-(12)----(12)--|-----------(12)-|
 ---------------|---------------|---------------|-----------------|
 ---------------|---------------|---------------|-----------------|
 -2-------------|---------------|---------------|-----------------|
 -2-------------|---------------|---------------|-----------------|
 -0-------------|---------------|---------------|-----------------|
 
 FROM HERE EACH BAR MEANS TWO BEATS
 Rhy.fig I        (end rhy.fig.I)
 E5 /  !   /        /  /  /  /    w/Rhy.fig.I(play 4 times)
 P.M. .........................
 ---------------|---------------|---------------|-----------------|
 ---------------|---------------|---------------|-----------------|
 ---------------|---------------|---------------|-----------------|
 -2-------------|---------------|---------------|-----------------|
 -2-------------|---------------|---------------|-----------------|
 -0-------------|---------------|---------------|-----------------|
 
                 verse1
 ---------------|---------------|---------------|-----------------|
 ---------------|---------------|---------------|-----------------|
 ---------------|---------------|---------------|-----------------|
 ---------------|---------------|---------------|-----------------|
 ---------------|---------------|---------------|-----------------|
 ---------------|---------------|---------------|-----------------|
                Reaching out for something you`ve got-ta    feel__
 
  (rhy.fig.1 played for the 4th) E5  /   !   /     /   /    /.
 ---------------|---------------|---------------|-----------------|
 ---------------|---------------|---------------|-----------------|
 ---------------|---------------|---------------|-----------------|
 ---------------|---------------|-2-------------|-----------------|
 ---------------|---------------|-2-------------|-----------------|
 ---------------|---------------|-0-------------|-----------------|
         You`re  clutching  to   what you   had  thought was re-al
 
 GuitarI&II     Rhy.fig2
 E5  /   !   /    /    /   G5    E5   /  !   /    /    /  F#5slG5
 P.M....................         P.M....................
 ---------------|---------------|---------------|-----------------|
 ---------------|---------------|---------------|-----------------|
 ---------------|---------------|---------------|-----------------|
 ---------------|----------5----|-2-------------|------------4/5--|
 ---------------|----------5----|-2-------------|------------4/5--|
 ---------------|----------3----|-0-------------|------------2/3--|
                Kick-ing    at a dead horse      pleas-es   you__
 
 E5   /  !   /   /    /  F#5slG5 E5   /   !   /   /   /   G5
 P.M...................          P.M...........
 ---------------|---------------|---------------|-----------------|
 ---------------|---------------|---------------|-----------------|
 ---------------|---------------|---------------|-----------------|
 ---------------|----------4/5--|-2-------------|----------5------|
 ---------------|----------4/5--|-2-------------|----------5------|
 ---------------|----------2/3--|-0-------------|----------3------|
                 No way      of   showin`   your  grat-i-  tude___
 
 
                                (end Rhy.Fig2)  Rhy.fig3
 E5   /   !   /   /   /   F5      E5  /   !   /   /   /  F#5slG5
 P.M.................             P.M..................
 ---------------|---------------|---------------|-----------------|
 ---------------|---------------|---------------|-----------------|
 ---------------|---------------|---------------|-----------------|
 -2-------------|---------3-----|-2-------------|-----------4/5---|
 -2-------------|---------3-----|-2-------------|-----------4/5---|
 -0-------------|---------1-----|-0-------------|-----------2/3---|
 ______                          S______________ so   man -   y
 
 E5    /  !   /   /   / F#5slG5  E5  /   !    /   /    /    G5
 P.M..................           P.M....................
 ---------------|---------------|---------------|-----------------|
 ---------------|---------------|---------------|-----------------|
 ---------------|---------------|---------------|-----------------|
 -2-------------|---------4/5---|-2-------------|------------5----|
 -2-------------|---------4/5---|-2-------------|------------5----|
 -0-------------|---------2/3---|-0-------------|------------3----|
 things you don`t wan-na  do_______              What is     it,
 
 
 E5   /   !   /   /   /   G5     E5   /   !   /   /    /    F5
 P.M.................            P.M....................
 ---------------|---------------|---------------|-----------------|
 ---------------|---------------|---------------|-----------------|
 ---------------|---------------|---------------|-----------------|
 -2-------------|----------5----|-2-------------|------------3----|
 -2-------------|----------5----|-2-------------|------------3----|
 -0-------------|----------3----|-0-------------|------------1----|
 what have you got_  to   lose?____________________
 
 (end Rhy.Fig.3) Rhy.Fig.4
 E(open)F5 E F5  E5   /  !   /    /   /  F#5slG5 E5   /    !    /
                 P.M...................          P.M..............
 -0-------0-----|---------------|---------------|-----------------|
 -0-------0-----|---------------|---------------|-----------------|
 -1-------1-----|---------------|---------------|-----------------|
 -2---3---2---3-|-2-------------|----------4/5--|-2---------------|
 -2---3---2---3-|-2-------------|----------4/5--|-2---------------|
 -0---1---0---1-|-0-------------|----------2/3--|-0---------------|
                 (What the hell?)What the hell?____
 
                                                   (end Rhy.Fig.4)
 E5   /  F#5slG5  E5  /   !   /   /   /   G5     E    G5  E   G5
 P.M...           P.M..................          P.M.     P.M.
 ---------------|---------------|---------------|-0-------0-------|
 ---------------|---------------|---------------|-0-------0-------|
 ---------------|---------------|---------------|-1-------1-------|
 -2--------4/5--|-2-------------|---------5-----|-2---5---2---5---|
 -2--------4/5--|-2-------------|---------5-----|-2---5---2---5---|
 -0--------2/3--|-0-------------|---------3-----|-0---3---0---3---|
 What is     it  you think you`re gon-na  find?________________
 
 E5   /   !   /   /   /   G5      E5  /   !   /   /   /   G5
 P.M..................            P.M..................
 ---------------|---------------|---------------|-----------------|
 ---------------|---------------|---------------|-----------------|
 ---------------|---------------|---------------|-----------------|
 -2-------------|----------5----|-2-------------|----------5------|
 -2-------------|----------5----|-2-------------|----------5------|
 -0-------------|----------3----|-0-------------|----------3------|
 (Hyp-o-crite.)  Hyp - o- crite.                 Bore-dom sets
 
 
 E5  /   !   /    /   /   G5      E   G5  E   G5
 P.M.................. P.M.       P.M.    P.M.    (1/2 beat pause)
 ---------------|---------------|-0-------0-----|-----------------|
 ---------------|---------------|-0-------0-----|-----------------|
 ---------------|---------------|-1-------1-----|-----------------|
 -2-------------|----------5----|-2---5---2---5-|-----------------|
 -2-------------|----------5----|-2---5---2---5-|-----------------|
 -0-------------|----------3----|-0---3---0---3-|-----------------|
 into the   bor - ing    mind._________________________
 
 ************
 FROM HERE EACH BAR MEANS 4 BEATS
 I don`t bother with timing here.
 GuitarI
 Rhy.Fig.5A                                H                H
 ---------------|---------------|---------------|-----------------|
 ---------------|---------------|---------------|-----------------|
 ---------------|---------------|---------------|-----------------|
 --5--5----5/7--|-3--3----5/7---|--5--5---4^5---|--3--3----4^5----|
 --5--5---------|-3--3----------|--5--5---------|--3--3-----------|
 --3--3---------|-1--1----------|--3--3---------|--1--1-----------|
 
 GuitarII
 Rhy.Fig.5B
 ---------------|---------------|---------------|-----------------|
 ---------------|---------------|---------------|-----------------|
 ---------------|---------------|---------------|-----------------|
 --5--5----5/7--|-3--3----5/7---|--5--5---5/7---|--3--3----5/7----|
 --5--5---------|-3--3----------|--5--5---------|--3--3-----------|
 --3--3---------|-1--1----------|--3--3---------|--1--1-----------|
 
 GuitarI&II
 Rhy.Fig.6       (end Rhy.Fig.6) w/Rhy.Fig.6 (3 times) 

Тональность:

Это должно быть в ТОП-листе! - Топ-лист композиций



Назад
Рекомендуем посмотреть другие песни исполнителя «Metallica»:

  • Комменты Fb ()
  • Комменты ВК



Добавить в Избранное Браузера
Сохранить здесь Очистить


x

0


+
-

+
-

-

Авторизация





Зарегистрироваться

M

Дата и время

  • 03:36:44
     

Социальные ссылки


Наши приложения

  • Muzbank App Play Market
  • Muzbank Amazon App