MUZBANK


МУЗЫКАЛЬНО-ИНФОРМАЦИОННЫЙ БАНК





MMetallica • The Call of Ktulu (аккорды и текст - chords & lyrics)


510

Print

Видео «The Call of Ktulu (Metallica)»

Видео клипы к песне подбираются автоматически сайтом youtube. Возможны некоторые несоответствия клипов песне.

↑ Спрятать рекламу ↑






Intro....play each part twice....

E|--5---------5---|---6---------6---|
B|------6-------6-|-------6-------6-|
G|----7-----7-----|-----7-----7-----|
D|0-------7-------|-0-------7-------|
A|----------------|-----------------|
E|----------------|-----------------|

E|---8----------8---|---5---------5---|
B|-------8--------8-|-------6-------6-|
G|-----9------9-----|-----7-----7-----|
D|-0-------10-------|-0-------7-------|
A|------------------|-----------------|
E|------------------|-----------------|

The next part....play it a few times....

E|--------0------|---------0-------|
B|------0---0----|-------0---0-----|
G|----5------5---|-----5-------5---|
D|--7------------|---7-----------7-|
A|0------------7-|-6---------------|
E|---------------|-----------------|

The next part....Dave Mustaine used this again in the intro to
Hangar 18

E|------1-|-------1-|-------1-|-------5-|
B|----3---|-----3---|-----3---|-----3---|
G|--2-----|---3-----|---4-----|---5-----|
D|0-------|-0-------|-0-------|-0-------|
A|--------|---------|---------|---------|
E|--------|---------|---------|---------|

That`s about all I can handle doing, typing in this tab is hell!

Тональность:

Это должно быть в ТОП-листе! - Топ-лист композиций



Назад
Рекомендуем посмотреть другие песни исполнителя «Metallica»:

  • Комменты Fb ()
  • Комменты ВК



Добавить в Избранное Браузера
Сохранить здесь Очистить


x

0


+
-

+
-

-

Авторизация





Зарегистрироваться

M

Дата и время

  • 16:09:36
     

Социальные ссылки


Наши приложения

  • Muzbank App Play Market
  • Muzbank Amazon App