MUZBANK


МУЗЫКАЛЬНО-ИНФОРМАЦИОННЫЙ БАНК





MMetallica • The Cure (аккорды и текст - chords & lyrics)


434

Print

Видео «The Cure (Metallica)»

Видео клипы к песне подбираются автоматически сайтом youtube. Возможны некоторые несоответствия клипов песне.

↑ Спрятать рекламу ↑





E|-------------------------------------------------------------|
B|-------------------------------------------------------------|
G|-------------------------------------------------------------|
D|-------------------------------------------------------------|
A|-2-2----2-----4-----4-2-2----2-----4----4--2----2-----4----4-|
E|-0-0-3~-0-4-5---4-5---0-0-3~-0--4-5--4-5---0-3~-0--4-5--4-5--|

E|--------|
B|--------|
G|--------|
D|-3-3-->-|
A|-3-3-->-|
E|-1-1-->-|
  Keep strumming F#, gradually lidting palm off of bridge

E|-------------------------------------------------------|
B|-------------------------------------------------------|
G|-------------------------------------------------------|
D|-------------------------------------------------------|
A|-------------------------------------------7-6-5-------|
E|-0-3-0-6-0-0-0-3-0-6-0-0-0-3-0-6-0-0-0-3-0-------7-6-5-|
  all open string notes - (E)

E|-------------|
B|-7-7-7-6-6-7-|
G|-8-8-8-7-7-8-|
D|-------------|
A|-------------|
E|-------------|

The man takes another bullet
 He keeps them all within
 He must seek no matter how it hurts
 So don`t fool again
 He thinks the answer is cold and in his hand
 He takes his medicine
 The man takes another bullet
 He`s been fooled again
 Uncross your arms
 Take and throw them to the cure, say...
 I do believe

        Uncross your arms now
        Take them to it I say...
        I do believe
        Yeah, I do believe

 The lie is tempted and she follows
 Again she hits him in
 She must believe to feel the hollow
 She`s been fooled again

        Uncross your arms
        Take and throw them to the cure, say...
        I do believe
        Uncross your arms now
        Take them to it I say...
        I do believe
        Oh yeah, I do believe

 Betting on the cure
 It must get better than this
 Betting on the cure
 Yeah everyone`s gotta to have the sickness
 Cause everyone seems to need the cure
 Precious cure

 Betting on the cure
 Cause it must get better than this
 Betting on the cure
 Yeah everyone`s gotta to have the sickness
 Cause everyone seems to need the cure
 Precious cure
 I do beleive

 Betting on the cure
 It must get better than this
 Need to feel secure
 Yeah it`s got to get better than this
 It must get better than this
 Betting on the cure
 Everyone`s gotta to have the sickness
 Cause everyone seems to need the cure
 I do believe

Тональность:

Это должно быть в ТОП-листе! - Топ-лист композиций



Назад
Рекомендуем посмотреть другие песни исполнителя «Metallica»:

  • Комменты Fb ()
  • Комменты ВК



Добавить в Избранное Браузера
Сохранить здесь Очистить


x

0


+
-

+
-

-

Авторизация





Зарегистрироваться

M

Дата и время

  • 15:45:22
     

Социальные ссылки


Наши приложения

  • Muzbank App Play Market
  • Muzbank Amazon App