MUZBANK


МУЗЫКАЛЬНО-ИНФОРМАЦИОННЫЙ БАНК





MMetallica • The Thing That Should Not Be (аккорды и текст - chords & lyrics)


483

Print

Видео «The Thing That Should Not Be (Metallica)»

Видео клипы к песне подбираются автоматически сайтом youtube. Возможны некоторые несоответствия клипов песне.

↑ Спрятать рекламу ↑






Tune all guitars down 1 full step

1)
F-----------------------------------
C-----------------------------------
G--2--4--------2--4----3-----4-----5
D--0--2--------0--2--2-----2-----2--
intro clean

2)
F-----------5-----6-----7-------------5------6------7-------
C-----------5-----6-----7-------------5------6------7-------
G-----------3-----4-----5-------------3------4------5------2
D--0--0-1-2-----2-----2------0--0-1-2----1-2----1-2----1-2-0
  pm.......     .     .      ........    ...    ...    ...
intro crunch
...Face the thing that should not be

3)
F|-7-------7---7-3-------3---3-4-------4---4-------------------|
C|-7-------7---7-3-------3---3-4-------4---4-6-----------------|
G|-----------9-------------5-------------6---3-3-3-3-3-3-3-3-3-|
D|---7-7-7---7-----3-3-3---3-----4-4-4---4---1-1-1-1-1-1-1-1-1-|

Great old one, forbidden site...

4)
F--------------------------------------------------------
C--2--4--------------------------------------------------
G--2--4-----------------------4-4-3-3-3-3-4-4-4-4-5-5-5-5
D--0--2-----------------------2-2-2-2-2-2-2-2-2-2-2-2-2-2
Messenger of fear in sight   Dark deception fills the light.
verse clean

5)
F--4---5------------------------------------------4--5
C--4---5------------------------------------------4--5
G--2---3---7-8-7-8-2-2-2-2-2-2-2-2-2-2-2-2-7-8-7--2--3
D----------5-6-5-6-0-0-0-0-0-0-0-0-0-0-0-0-5-6-5------
                   pm.....................
..is rising

6)
F--4--5-----4
C--4--5--3--4
G--2--3--3--2
D--------1---
In maddness you dwell.

7)
F--4--------------------4------------------4-5---4
C--4--------2-----------4-------2----------4-5-3-4
G--2------2---3-2-3-2-0-2-----2---3-2-3-2--2-3-3-2
D-----3-5-----------------3-5------------------1--
     pm..............   ...............
post solo

-----------------------
solo by Jake Horbol

------------------|----------------7h10p|--7~-|
------------------|---------------------|-----|
------------------|---------------------|-----|
------------------|---------------------|-----|
------------------|---------------------|-----|
------------------|---------------------|-----|

------------------10-10-10-10-|
----17b-----------------------|
------------------------------|
------------------------------|
------------------------------|
------------------------------|

       x12
-14p11p10-|----------------|
----------|--13r-------13-|
----------|----------------|
----------|----------------|
----------|----------------|
----------|----------------|

------------9-10-9h10p9----------------------|---------|
-------9-10-------------10-8-----------------|---------|
--9h10-----------------------11-10-----------|---------|
-----------------------------------12-11-8-7-|---------|
---------------------------------------------|--9---8~-|
---------------------------------------------|---------|
  dive
-----------14p11p10-14p11p10-14p11p10-14p11p10-14p11p|
-----------------------------------------------------|
--0--------------------------------------------------|
-----------------------------------------------------|
-----------------------------------------------------|
-----------------------------------------------------|

--10-14p11p10-14p11p10-14p12p10/------|
--------------------------------------|
----------------------------------12~-|
--------------------------------------|
--------------------------------------|
--------------------------------------|

Bass Fig1
G|---------------------------------|
D|---------------------------------|
A|--------------1-------2-------3--|
E|--0--0--1--2-------2-------2-----|

Bass Fig2
G|----------------------------------------|
D|----------------------------------------|
A|--------------1--------2--------3-------|
E|--0--0--1--2-----1--2-----1--2----0--2--|

Bass Fig3
G|-----------------------------------------------------------|
D|-----------------------------------------------------------|
A|-----------------------------------------------------------|
E|-7-7-7-7-10-7-10-6-3-3-3-6-3-6-7-4-4-4-7-4-7-4-1-1-1-1-1-1-|

Bass Fig4
G|------------|
D|------------|
A|------------|
E|--0--2------|
      Let ring

Bass Fig5
G|-------------------------------------------------------|
D|-------------------------------------------------------|
A|--0----1-----------------------------------------------|
E|------------5--6--5-6-0-0-0-0-0-0-0-0-0-0-0---5--6--5--|

Bass Fig6
G|--------------------|
D|--------------------|
A|--0----1---------0--|
E|------------1-------|

Bass Fig7
G|-----------------------------------|
D|-----------------------------------|
A|-----------------------------------|
E|--5--6--5-6-0-0-0-0-0-0-0-0-0-0-0--|

Bass Fig8
G|-----------------------------------------------------------|
D|-----------------------------------------------------------|
A|-----------0--------0--1-0---1-0--0--------0-3-1-0-1-0-0-1-|
E|--5--6--5-----3--5---------3---------3--5------------------|

Bass Fig9
G|--------------------------|
D|--------------------------|
A|--0--------0--5-1-0-1--0--|
E|-----3--5-----------------|

Тональность:

Это должно быть в ТОП-листе! - Топ-лист композиций



Назад
Рекомендуем посмотреть другие песни исполнителя «Metallica»:

  • Комменты Fb ()
  • Комменты ВК



Добавить в Избранное Браузера
Сохранить здесь Очистить


x

0


+
-

+
-

-

Авторизация





Зарегистрироваться

M

Дата и время

  • 04:06:54
     

Социальные ссылки


Наши приложения

  • Muzbank App Play Market
  • Muzbank Amazon App