MUZBANK


МУЗЫКАЛЬНО-ИНФОРМАЦИОННЫЙ БАНК





MMetallica • The Unforgiven (аккорды и текст - chords & lyrics)


387

Print

Видео «The Unforgiven (Metallica)»

Видео клипы к песне подбираются автоматически сайтом youtube. Возможны некоторые несоответствия клипов песне.

↑ Спрятать рекламу ↑






 


THE INTRO PART:
---------------

4/4 timing
Gtr II (electric, clean tone)                     H            ~~~~~

--------------------------------------------|
--------------------------------------------|
----------------------|---------2---4-5^4-------5-4-2---|
--------------------------------------------|
--------------------------------------------|
--------------------------------------------|
|Gtr I. (acous.)
| let ring            Play 4 times
--------------------------------------------|
|.0-------0-----0-----0-----1----.|-0-------0-----0-----1-----1-----|
2-----2-----2-----2---2-----2-----2-----2---|
|.------2-----2-----2-----2-----2.|-------2-----2-----2-----2-----2-|
|-0-------------------------------|-0-------------------------------|
--------------------------------------------|

~~~~~~~~        H          ~~~~~~~~~~~~~~~                     ~~~~~
--------------------------------------------|
--------------------------------------------|
|(2)------2---4-4^5-------5-2-----|(2)------2---4-4^5-------5-4-2---|
--------------------------------------------|
--------------------------------------------|
--------------------------------------------|
|
|
--------------------------------------------|
|-0-------0-----1-----1-----1-----|-0-------0-----0-----1-----1-----|
2-----2-----2-----2---2-----2-----2-----2---|
|-------2-----2-----2-----2-----2-|-------2-----2-----2-----2-----2-|
|-0-------------------------------|-0-------------------------------|
--------------------------------------------|

~~~~~~~~        H          ~~~~~~~~~~~~~~~
--------------------------------------------|
--------------------------------------------|
|(2)------2---4-4^5-------5-2-----|(2)------2---4-4^5----4^5------5-|
--------------------------------------------|
--------------------------------------------|
--------------------------------------------|
|
|
--------------------------------------------|
|-0-------0-----1-----1-----1-------0---1-------1-----1-|
2-----2-----2-----2---|---------2-----------------------|
|-------2-----2-----2-----2-----2-------------2-----2---|
|-0-------------------------------|-0-------------------3-----------|
--------------------------------------------|

     ~~~~~~~~ sl             H                     H       H
--------------------------------------------|
----------------------------------3^5-----5-|
|-5-4---------4----------2-2^4---|-2-------2---4-4^5---------------|
|-----5-----------2-------------------------------------|
--------------------------------------------|
--------------------------------------------|
|
|                              H
------------------------------------0-----0-|
------------------------0---1-----------1---|
|-----0-------0-----------2---2^4-|-2-------2-----------------------|
|---0-------------2---2-2---------|-------2---------------2---------|
----------------------|-----0---------------3-----------|
|-3-------3---------------------------------------------|

               sl        sl    H    ~~~~~~~~~~~~~~~~~~~~~~~~~~~~~~~~
--------------------------------------------|
|-5-3---------------------------------------------------|
|-----4-------4--1------4-1-2^4-|-2-------------------------------|
--------------------------------------------|
--------------------------------------------|
--------------------------------------------|
|
|
--------------------------------------------|
|-1-3-0-------3-------------------|---------0-----0-----0-----1-----|
------1---1---4-1-2^4-2-----2-----2-----2---|
----------------------|-------2-----2-----2-----2-----2-|
----------------------|-0-------------------------------|
|---------3---------------------------------------------|

(Gtr.II out)
----------------------||
----------------------||
----------------------||
----------------------||
----------------------||
----------------------||
|
|                        (Gtr.I out)
----------------------||
|-0-------0-----0-----0-----1-----||
2-----2-----2---------||
|-------2-----2-----2-----2-------||
|-0-------------------------------||
----------------------||


VERSE PART
~~~~~~~~~~

             H    ~~~~~~~
--------------------------------------------|
|.----------------------------8---|-8---7---7-----------------------|
|-7---5---4-4^5---------------------5---5-----------7---|
------5-------------------------------------|
|.------------------------------------------------------|
--------------------------------------------|
New  blood_joins this earth  and quickly he 

Тональность:

Это должно быть в ТОП-листе! - Топ-лист композиций



Назад
Рекомендуем посмотреть другие песни исполнителя «Metallica»:

  • Комменты Fb ()
  • Комменты ВК



Добавить в Избранное Браузера
Сохранить здесь Очистить


x

0


+
-

+
-

-

Авторизация





Зарегистрироваться

M

Дата и время

  • 06:01:20
     

Социальные ссылки


Наши приложения

  • Muzbank App Play Market
  • Muzbank Amazon App