MUZBANK


МУЗЫКАЛЬНО-ИНФОРМАЦИОННЫЙ БАНК





MMetallica • Thorn within (аккорды и текст - chords & lyrics)


478

Print

Видео «Thorn within (Metallica)»

Видео клипы к песне подбираются автоматически сайтом youtube. Возможны некоторые несоответствия клипов песне.

↑ Спрятать рекламу ↑






(Проигрыш Riff)        (Lead thing Проигрыш)
Gb|----------2-|     Bb|-1/3--4--3--1-----|
Db|-2---2----2-|     Gb|---------------2--|
Ab|-2---2----0-|     Db|------------------|
Eb|-0-3-0--3---|     Ab|------------------|

(Descend Riff)
Ab|---4---3---2---1---0-----4--4--4-4-0--5--4p0-:|
Eb|-2---2---2---2---2---0-0-2--2--2-2-0--3--2p0-:|

Eb|------------------------------------------------------|
Bb|------------------------------------------------------|
Gb|------------------------------------------4---4-6---6-|
Db|-7-(7)--4-7-7/9-(9)--9/10⁄9⁄7-5---5-4---4-------------|
Ab|------------------------------------------------------|
Eb|-5-(5)------------------------------------------------|

with distortion
Eb|----------------------------------------------------------|
Bb|----------------------------------------------------------|
Gb|----------------------------------------------------------|
Db|----------------------------------------------4--4-6--6-6-|
Ab|---5-5/7--(7)--7-7/9--(9)----------5---5-4--4-2--2-4--4-4-|
Eb|-0-3-3/5--(5)--5-5/7--(7)-7/8⁄7⁄5--3---3-2--2-------------|

before the solo
Ab|--7-6-|-5-5--5--5--5-5--5--5--5-5--
Eb|--5-4-|-3-3--3--3--3-3--3--3--3-3--

solo
Eb|------------------------------------------------------------|
Bb|----/Full⁄-------------------------/F⁄----------------------|
Gb|-12/------⁄12-------------------14/---⁄14-11------11^9 11^9-|
Db|--------------10----------10-12----------------12-----------|
Ab|-----------------12-10-12-------------------14--------------|
Eb|------------------------------------------------------------|

Eb|------------------------------------------------------------|
Bb|----/F⁄-----------------------------------------------------|
Gb|-11/---⁄11-9------------------------------------------------|
Db|------------12-11-11^12^11----------11-12-------11-12-14-11-|
Ab|---------------------------13-13-14-------14-14-------------|
Eb|------------------------------------------------------------|

THORN WITHIN
(Hetfield/Ulrich/Hammett)

Forgive me father
For I Have sinned
Find me guilty of the life I feel within

When I'm branded
This mark of shame
So I look down disgraced for saying I know that you must feel

I am, I am the secret
I am, I am the sin
I am, I am the guilty
And I, I am the thorn within

Forgive me father
For I Have sinned
Find me guilty with true guilt that's from within

So point your fingers
Point right at me
For I am shadows and will follow you whatever see my way

I am, I am the secret
I am, I am the sin
I am, I am the guilty
And I, I am the thorn within

I do your time
I take your fall
I'm branded guilty for a soul

So point your fingers
Point right at me
For I am shadows and will follow you whatever see my way

I am, I am your secrets
I am, I am your sin
I am, I am your guilty
And I, I am the thorn within
I am the thorn within
I am the thorn within
I am the thorn within

Тональность:

Это должно быть в ТОП-листе! - Топ-лист композиций



Назад
Рекомендуем посмотреть другие песни исполнителя «Metallica»:

  • Комменты Fb ()
  • Комменты ВК



Добавить в Избранное Браузера
Сохранить здесь Очистить


x

0


+
-

+
-

-

Авторизация





Зарегистрироваться

M

Дата и время

  • 13:47:51
     

Социальные ссылки


Наши приложения

  • Muzbank App Play Market
  • Muzbank Amazon App