MUZBANK


МУЗЫКАЛЬНО-ИНФОРМАЦИОННЫЙ БАНК





MMetallica • Thou (аккорды и текст - chords & lyrics)


438

Print

Видео «Thou (Metallica)»

Видео клипы к песне подбираются автоматически сайтом youtube. Возможны некоторые несоответствия клипов песне.

↑ Спрятать рекламу ↑





1a)
G|-------------------------------------|
D|-2----------------2----------------2-|
A|-2----------------2----------------2-|
E|-0--0-0-0--0-0-0--0--0-0-0--0-0-0--0-|

1b)
G|------------------------|
D|-5-------2----5-------2-|
A|-5-------2----5-------2-|
E|-3---4-5-0----3---4-5-0-|

1b comes after a few times and is heard under 1a

2)
G|-----------------------------------------------------------|
D|--------------2-----------------------------2--------------|
A|-0-1---0-1----2--0-1---0-1-----0-1---0-1----2--0-1---0-1---|
E|-----3-----3--0------3-----3-------3-----3--0------3-----3-|

3)
G|---------------------------------|
D|--------------5----------------2-|
A|-0-1---0-1----5---0-1---0-1----2-|
E|-----3-----3--3-------3-----3--0-|

No more

4)
G|-----------------|
D|---------------2-|
A|-1-1-1-1-1-0---2-|
E|-------------3-0-|
..instead

Тональность:

Это должно быть в ТОП-листе! - Топ-лист композиций



Назад
Рекомендуем посмотреть другие песни исполнителя «Metallica»:

  • Комменты Fb ()
  • Комменты ВК



Добавить в Избранное Браузера
Сохранить здесь Очистить


x

0


+
-

+
-

-

Авторизация





Зарегистрироваться

M

Дата и время

  • 12:15:17
     

Социальные ссылки


Наши приложения

  • Muzbank App Play Market
  • Muzbank Amazon App