MUZBANK


МУЗЫКАЛЬНО-ИНФОРМАЦИОННЫЙ БАНК





MMetallica • Tuesdays Gone (аккорды и текст - chords & lyrics)


647

Print

Видео «Tuesdays Gone (Metallica)»

Видео клипы к песне подбираются автоматически сайтом youtube. Возможны некоторые несоответствия клипов песне.

↑ Спрятать рекламу ↑





 INTRO

  Gtr.1
E||----|-------------------|
B||-14-|-14-----14*---(14)-|
G||-11-|-------------------|
D||----|-11*---(11)--------|
A||----|-------------------|
E||----|-------------------|
 Vocal:One,two,three
       One,two,three
  Gtr.2 Rhy.Fig 1
E|------------------|-----------------|
B|------------------|-2---------------|
G|----------------2-|--------2--------|
D|--------2---------|---------------2-|
A|-0----------------|-----------------|
E|------------------|-----------------|

E|----|-------------|-----------|
B|-12-|-12*----(12)-|-12-----10-|
G|----|-------------|-----------|
D|--9-|--9*-----(9)-|--7--------|
A|----|-------------|-----------|
E|----|-------------|-----------|

E|------------|-----------|-----------|
B|------------|-----------|-----------|
G|------------|-1---------|-----------|
D|----------2-|-----2-----|---------4-|
A|------2-----|---------2-|-----4-----|
E|-0----------|-----------|-2---------|

E|--------------|---|--------------------|
B|-10*-----(10)-|-7-|-7///10-10/12-12/14-|
G|--------------|---|--------------------|
D|-----7*---(7)-|-4-|-4////7--7//9--9/11-|
A|--------------|---|--------------------|
E|--------------|---|--------------------|

E|-------------|-------------|-2^3^2-----------|
B|-------------|-----------3-|----------3------|
G|-2-----------|------2------|---------------2-|
D|------4------|-0-----------|-----------------|
A|-----------4-|-------------|-----------------|
E|-------------|-------------|-----------------|

E|----|-----------|----------|
B|-14-|-14*--(14)-|-14----12-|
G|----|-----------|----------|
D|-11-|-11*--(11)-|--9-------|
A|----|-----------|----------|
E|----|-----------|----------|

E|-------------|-----------|-------------|
B|-------------|-2---------|-------------|
G|-----------2-|-----2-----|-------------|
D|------2------|---------2-|-----------2-|
A|-0-----------|-----------|------2------|
E|-------------|-----------|-0-----------|

  Rhy.Fill 1
E|--------------|---------12---------|-----|
B|-12*---(12)^10|-----------------15-|-----|
G|--------------|--------------------|-----|
D|--------------|-0------------------|--%--|
A|--------------|--------------------|-----|
E|--------------|--------------------|-----|

  (end Rhy.Fig.1) Rhy.Fill 1A
E|-----------------|----------0---------|-----|
B|-----------------|------------------3-|-----|
G|-1---------------|--------------------|-----|
D|--------2--------|-0------------------|--%--|
A|---------------2-|--------------------|-----|
E|-----------------|--------------------|-----|

  (end Rhy.Fill 1)
E|-----|-----|-------------------|
B|-----|-----|-------------------|
G|-----|-----|-4*-----(4)--4*-(4)|
D|--%--|--%--|-0-----------------|
A|-----|-----|-------------------|
E|-----|-----|-------------------|

  (end Rhy.Fill 1A)
E|-----|-----|----------------|
B|-----|-----|----------------|
G|-----|-----|----------------|
D|--%--|--%--|-0-----2--------|
A|-----|-----|----4-----2---0-|
E|-----|-----|----------------|

  Guitar solo 1
  w/Rhy.Fig 1(Gtr.2)
E|---|-------------------|---|
B|---|-------------------|---|
G|-2-|-4*--(4)^2--4*-(4)-|---|
D|---|-------------------|-2-|
A|---|-------------------|---|
E|---|-------------------|---|

E|--------------------|------|---|
B|--------------------|------|---|
G|-4*---4*---4*-(4)^2-|------|-2-|
D|--------------------|-4--4-|---|
A|--------------------|------|---|
E|--------------------|------|---|

E|--------------|-------------------|----|
B|--------------|-------------------|-5--|
G|--------------|---------------2^4-|-4*-|
D|--------------|--------2^4--------|----|
A|-4-/-5--4-/-5-|-2^4---------------|----|
E|--------------|-------------------|----|

E|-----------------|---|-----------------|
B|-5---------------|-5-|-5-/-7---------5-|
G|-4*----(4)-----2-|-4-|-4-/-6---------4-|
D|-----------------|---|-----------------|
A|-----------------|---|-----------------|
E|-----------------|---|-----------------|

w/Rhy.Fill 1 & 1A
E|---|
B|-3-|
G|-2-|
D|---|
A|---|
E|---|

E|----------------||
B|-2^3^5--------2-||
G|----------------||
D|----------------||
A|----------------||
E|----------------||

 1 VERSE

w/Rhy.Fig.1(Gtr.1)
Gtr.2(Accords)
A            E  F#m                  D
  Train roll on,   on down the line.Won't you
A                 E          D
  Please take me far , far away.Yeah.
A                       E  F#m           D
  Now I feel the wind blow   outside my door. Lord I'm
A                 E        D
  I'm leaving my woman at home.Oh,yeah.

Chorus
Gtr.2
Gtr.1
   A                                 G
E|---------------|-----------------|-3--------3----3-|
B|---------------|-----------------|-0--------0----0-|
G|-2-----------2-|-2-------------2-|-0--------0----0-|
D|-2-----------2-|-2-------------2-|-0--------0----0-|
A|-0-----------0-|-0-------------0-|-2--------2----2-|
E|---------------|-----------------|-3--------3----3-|
 Tues- day's gone___

                    D
E|-3------------3-|-2------2----2-|-2-------------|
B|-0------------0-|-3------3----3-|-3-----3-------|
G|-0------------0-|-2------2----2-|-2-----------2-|
D|-0------------0-|-0------0----0-|-0-------------|
A|-2------------2-|---------------|---------------|
E|-3------------3-|---------------|---------------|
 with the  wind___

                                     A
E|---------------|-----------------|---|
B|-3---------3---|---3-------------|-2-|
G|-2---------2---|---2-----------7-|-2-|
D|-0---------0---|---0-------------|-2-|
A|---------------|-----------------|-0-|
E|---------------|-----------------|---|
Yeah____

                 E
E|-------------|------0------|-------------|
B|-------------|-----------0-|-------------|
G|-2---------2-|-------------|-1-----------|
D|-2---------2-|-------------|--------2----|
A|-0---------0-|-------------|-----------2-|
E|-------------|-0-----------|-------------|
 My ba - by's gone gone with the

  w/Rhy.Fill 1A
E|---------0-------|---------0-------|---------0-------|
B|---------------3-|---------------3-|---------------3-|
G|-----------------|-----------------|-----------------|
D|-0---------------|-0---------------|-0---------------|
A|-----------------|-----------------|-----------------|
E|-----------------|-----------------|-----------------|
 wind___

E|--------------------||
B|--------------------||
G|-4*-(4)-(4)--4*-(4)-||
D|--------------------||
A|--------------------||
E|--------------------||
  Long gone

 Guitar solo 2
 w/Rhy.Fig 1(Gtr.2)
E|---|-------------------|
B|---|-------------------|
G|-2-|-4*--(4)---4*--(4)-|
D|---|-------------------|
A|---|-------------------|
E|---|-------------------|

E|---|-------------------|-------|
B|---|--------5----------|-------|
G|---|-4*--------4-(4)^2-|-4-----|
D|-2-|-------------------|-----4-|
A|---|-------------------|-------|
E|---|-------------------|-------|

E|------------------|------------|-------------------|
B|------------------|------------|-------------------|
G|----------------2-|------------|---------------2^4-|
D|-4---------4------|------------|--------2^4--------|
A|------------------|-4/54/54/54-|-2^4---------------|
E|------------------|------------|-------------------|

E|---------------|------------------|----------|
B|---------------|------------------|----------|
G|-4*---------4*-|-4----------(4)^2-|-4-/-6--4-|
D|---------------|------------------|----------|
A|---------------|------------------|----------|
E|---------------|------------------|----------|

w/Rhy.Fill 1 & 1A
E|--------------|---|
B|-5-/-7------5-|-3-|
G|-4-/-6------4-|-2-|
D|--------------|---|
A|--------------|---|
E|--------------|---|

E|-----------------||
B|-2^3^5---------2-||
G|-----------------||
D|-----------------||
A|-----------------||
E|-----------------||

2nd,3rd Verses
w/Rhy.Fig.1(Gtr.1)
Accords(Gtr.2)

Chorus
Gtr.2
Gtr.1
   A                             G
E|--------------|--------------|-3-------3----3-|
B|--------------|--------------|-0-------0----0-|
G|-2----------2-|-2----------2-|-0-------0----0-|
D|-2----------2-|-2----------2-|-0-------0----0-|
A|-0----------0-|-0----------0-|-2-------2----2-|
E|--------------|--------------|-3-------3----3-|
 Tues- day's gone__

                     D
E|-3------------3--|-2----------2----2-|-2----------------|
B|-0------------0--|-3----------3----3-|-3-------3--------|
G|-0------------0--|-2----------2----2-|-2--------------2-|
D|-0------------0--|-0----------0----0-|-0----------------|
A|-2------------2--|-------------------|------------------|
E|-3------------3--|-------------------|------------------|
 with the  wind__

                                      A
E|----------------|-----------------|----------------|
B|-3------------3-|-3---------------|----------------|
G|-2------------2-|-2-------------7-|-2------------2-|
D|-0------------0-|-0---------------|-2------------2-|
A|----------------|-----------------|-0------------0-|
E|----------------|-----------------|----------------|
 Oh,Yeah______

                 G
E|-------------|-3--------3----3-|-3------3-|
B|-------------|-0--------0----0-|-0------0-|
G|-2---------2-|-0--------0----0-|-0------0-|
D|-2---------2-|-0--------0----0-|-0------0-|
A|-0---------0-|-2--------2----2-|-2------2-|
E|-------------|-3--------3----3-|-3------3-|
  Tues- day's gone____ with the

   D
E|-2----------2----2-|-2-----------------|----------------|
B|-3----------3----3-|-3-------3---------|-3------------3-|
G|-2----------2----2-|-2---------------2-|-2------------2-|
D|-0----------0----0-|-0-----------------|-0------------0-|
A|-------------------|-------------------|----------------|
E|-------------------|-------------------|----------------|

                    A
E|----------------|---------------|-------------------|
B|-3--------------|---------------|-------------------|
G|-2------------7-|-2-----------2-|-2---------------2-|
D|-0--------------|-2-----------2-|-2---------------2-|
A|----------------|-0-----------0-|-0---------------0-|
E|----------------|---------------|-------------------|
 Yeah____ Tues- day's

   G                                 D
E|-3--------3----3-|-3-----------3-|-2---------2----2-|
B|-0--------0----0-|-0-----------0-|-3---------3----3-|
G|-0--------0----0-|-0-----------0-|-2---------2----2-|
D|-0--------0----0-|-0-----------0-|-0---------0----0-|
A|-2--------2----2-|-2-----------2-|------------------|
E|-3--------3----3-|-3-----------3-|------------------|
 gone___ gone with the wind__

E|-2------------2---------------|----------------------------|
B|-3-----3------3-----3---------|-8---10/12---------10----12-|
G|-2-----2------2-----2------/9-|--------------11------------|
D|-0-----0------0-----0---------|----------------------------|
A|------------------------------|----------------------------|
E|------------------------------|----------------------------|

    A                          E
E|---------------|-----------|------0-------|
B|-10-------(10)-|-----------|------------0-|
G|---------------|-2-------2-|--------------|
D|---------------|-2-------2-|--------------|
A|---------------|-0-------0-|--------------|
E|---------------|-----------|-0------------|
My ba - by's gone

                    w/Rhy.Fill 1A
E|-----------------|---------0-------|-------0-------|
B|-----------------|---------------3-|-------------3-|
G|-1---------------|-----------------|---------------|
D|--------2--------|---0-------------|-0-------------|
A|---------------2-|-----------------|---------------|
E|-----------------|-----------------|---------------|
with the   wind____

E|---------0--------|-------------------||
B|----------------3-|-------------------||
G|------------------|-4*---------4*-(4)-||
D|-0----------------|-------------------||
A|------------------|-------------------||
E|------------------|-------------------||

Соло на губной гармошке
Rhy.Fig.1(Gtr.1)
Accords(Gtr.2)

Interlude

  w/Fill 1A
E|-----------------||----|-5---------0-|
B|-2^3---------5^2-||.---|-5-----------|
G|-----------------||--2-|-------------|
D|-----------------||.-2-|-------------|
A|-----------------||--0-|-------------|
E|-----------------||----|-------------|

2nd time substitute
Fill 2

E|-x-------0-------|-------------|-0--------0-------|
B|-x-------------0-|-------------|-3--------------3-|
G|-x---------------|-1-----------|-2----------------|
D|-x---------------|------2------|-0----------------|
A|-x---------------|-----------2-|------------------|
E|-x---------------|-------------|------------------|

 2nd time substitute
 Fill 3
E|-2------0--------|-2------------------|-12------------||
B|---------------3-|------------10---12*|-------12-(12).||
G|-----------------|-----/11------------|---------------||
D|-----------------|--------------------|--------------.||
A|-----------------|--------------------|---------------||
E|-----------------|--------------------|---------------||

E|------2---0------|-2^0-----2-----2--||--------------------|
B|---------------3-|-3-------3-----3-.||------10-10---10--10|
G|-2---------------|-2-------2-----2--||-/11----------------|
D|-----------------|-0-------0-----0-.||--------------------|
A|-----------------|------------------||--------------------|
E|-----------------|------------------||--------------------|

E|-----------------||-------------------|-12---------------||
B|----10-10----10-.||----10-12----10-12*|----12(12)--12--10||
G|-12-------11-----||/11-------11-------|------------------||
D|----------------.||-------------------|------------------||
A|-----------------||-------------------|------------------||
E|-----------------||-------------------|------------------||

   *Fill 2*
E||---|---------|---------------|
B||-3-|---------|---------------|
G||-2-|---------|-----5---7---7-|
D||-0-|-------5-|-7-------------|
A||---|-/7------|---------------|
E||---|---------|---------------|

E|--------------------|---||
B|--------------------|---||
G|-5^7----7------7--5-|---||
D|--------------------|-7-||
A|--------------------|---||
E|--------------------|---||

   *Fill 3*
E||------5------5-------|---------------------||
B||-/5------8*-----8--5-|--------------------8||
G||---------------------|-7--5-----5--7--7/9--||
D||---------------------|-------7-------------||
A||---------------------|---------------------||
E||---------------------|---------------------||

 Guitar solo 3
 w/Rhy.Fig.1
E|-12*--(12)----12*-|-(12)---------------|--------------------|
B|------------------|-------------10-----|-10----------10--10-|
G|------------------|-----------------11-|---------11---------|
D|------------------|--------------------|--------------------|
A|------------------|--------------------|--------------------|
E|------------------|--------------------|--------------------|

E|------------|-------------------------|
B|-10------10-|-10--12*-(12)^10--12-----|
G|-----11-----|----------------------11-|
D|------------|-------------------------|
A|------------|-------------------------|
E|------------|-------------------------|

E|-----------------------------|-------------------------|
B|-10--12--12*-(12)^10--12-----|-10----13*-----------13*-|
G|--------------------------11-|-------------------------|
D|-----------------------------|-------------------------|
A|-----------------------------|-------------------------|
E|-----------------------------|-------------------------|

E|------------------------|-----------------------|
B|-10------10--12--10-----|-10---------(10)/(2)/5-|
G|-----11--------------11-|-----------------------|
D|------------------------|-----------------------|
A|------------------------|-----------------------|
E|------------------------|-----------------------|

E|-----------|--------------------|
B|-3^5-------|--------------------|
G|-------5^7-|-7----5----7^5------|
D|-----------|------------------7-|
A|-----------|--------------------|
E|-----------|--------------------|

E|-----------------|---|
B|-----------------|---|
G|-----------------|-5-|
D|-5-----------7^5-|---|
A|------7----------|---|
E|-----------------|---|

E|---------------------|-------------------------|
B|-------------------5-|-------------------------|
G|-------------------5-|-5*--------------------5-|
D|-5^7-----5^7---------|--------7----5----7------|
A|------7-------7------|-------------------------|
E|---------------------|-------------------------|

E|----------------------------|----------------------------|
B|----------------------------|-----8-----8-----8-----8----|
G|-7*-(7)^5---7-------5----6/-|-/9-----9-----9-----9-----9-|
D|----------------7-----------|----------------------------|
A|----------------------------|----------------------------|
E|----------------------------|----------------------------|

E|-----------8--8--8--8--8--8-|---------------------|
B|-8-----8---8--8--8--8--8--8-|-/10------10------10-|
G|----9------9--9--9--9--9--9-|---------------------|
D|----------------------------|---------------------|
A|----------------------------|---------------------|
E|----------------------------|---------------------|

E|-8--8--------8---10*-|-10*-------10--------10-|
B|--------10-----------|------------------------|
G|---------------------|------------------------|
D|---------------------|------------------------|
A|---------------------|------------------------|
E|---------------------|------------------------|

E|-10*------10*------10*-|-10*-------10-|
B|-10*------10*------10*-|-10*-------10-|
G|-----------------------|--------------|
D|-----------------------|--------------|
A|-----------------------|--------------|
E|-----------------------|--------------|

E|-8--------8---10---8---10-|------------------------------|
B|-----10-------------------|-10---(10)------10---12-------|
G|--------------------------|-----------/11-------------11-|
D|--------------------------|------------------------------|
A|--------------------------|------------------------------|
E|--------------------------|------------------------------|

E|------------12---------12-|------12-----------12------12-|
B|-10--12*---------12*------|-12*-----12*---12------12-----|
G|--------------------------|------------------------------|
D|--------------------------|------------------------------|
A|--------------------------|------------------------------|
E|--------------------------|------------------------------|

E|-----12------12------12*-|--------------------------|
B|-12------12------12--12*-|-10---------10---10-------|
G|-------------------------|------/11--------------11-|
D|-------------------------|--------------------------|
A|-------------------------|--------------------------|
E|-------------------------|--------------------------|

E|-----------------------------|-----------------5------|
B|-10--12--12*-(12)^10--12-----|-10---------5---------5-|
G|--------------------------11-|------7*----------------|
D|-----------------------------|------------------------|
A|-----------------------------|------------------------|
E|-----------------------------|------------------------|

E|-----------------------|-------------------------|
B|-8-------5-------------|-/10--------10^8------10-|
G|-----7-------5---7-----|-------------------------|
D|---------------------7-|-------------------------|
A|-----------------------|-------------------------|
E|-----------------------|-------------------------|

E|-8--------10*-------10*-|-10*-----(10)-|
B|------------------------|--------------|
G|------------------------|--------------|
D|------------------------|--------------|
A|------------------------|--------------|
E|------------------------|--------------|

E|-10---------8---10---8*-|----------------------|
B|------------------------|-10-------10^8-----10-|
G|------------------------|----------------------|
D|------------------------|----------------------|
A|------------------------|----------------------|
E|------------------------|----------------------|

E|-8*--------------10*-|-8-----------------------|
B|--------10^8---------|----------10^8-----------|
G|---------------------|--------------------97^5-|
D|---------------------|-------------------------|
A|---------------------|-------------------------|
E|---------------------|-------------------------|

E|-----------------------------|----5---------5---------5-|
B|-----------------------------|-5---------5---------5----|
G|-7------5^7----7----5-----7*-|--------7*--------7*------|
D|-----7-----------------------|--------------------------|
A|-----------------------------|--------------------------|
E|-----------------------------|--------------------------|

E|-------5---------5---------5-|-------5---------5---------5-|
B|----5---------5---------5----|----5---------5---------5----|
G|-7*--------7*--------7*------|-7*--------7*--------7*------|
D|-----------------------------|-----------------------------|
A|-----------------------------|-----------------------------|
E|-----------------------------|-----------------------------|

E|-------5---------5-----------|-----------------------------|
B|----5---------5--------------|-----------------------------|
G|-7*--------7*-------7*-(7)^5-|-7^5-----5--7^5--------------|
D|-----------------------------|------7----------7^5---------|
A|-----------------------------|-----------------------7^6^5-|
E|-----------------------------|-----------------------------|
 I can't change_____

E|----------------|---------------------|
B|----------------|---------------------|
G|----------------|---------------7-----|
D|----------------|-----------5---7---7-|
A|-5^3------------|-3---5/7-------------|
E|-------5^3----5-|---------------------|

E|---------------------------||
B|-----------5----5*---------||
G|-----------5----5*---------||
D|-5----7------------------7-||
A|---------------------------||
E|---------------------------||
 Train__ roll__ on__

  OUTRO

E|---|---|---|
B|---|-2-|---|
G|---|-2-|-2-|
D|---|-2-|-2-|
A|-0-|---|-2-|
E|---|---|-0-|

E|---------|-2-|
B|---------|-3-|
G|-1-----1-|-2-|
D|-2-----2-|-0-|
A|-2-----2-|---|
E|-0-----0-|---|

 Ride    on     train___

E|-5----8----5-----------|-----------------------------|
B|----------------8----5-|-5^8^5-----------------------|
G|-----------------------|---------7--5---------5----5-|
D|-----------------------|-----------------7-----------|
A|-----------------------|-----------------------------|
E|-----------------------|-----------------------------|

E|-----------------|---------------|
B|---------------8-|-10------------|
G|-------/9--------|----------4/11-|
D|-7---------------|---------------|
A|-----------------|---------------|
E|-----------------|---------------|
   Lord, I can't change____

E|--------------------------|----|
B|--10---12--------10---12*-|-12-|
G|------------11------------|----|
D|--------------------------|----|
A|--------------------------|----|
E|--------------------------|----|
                  no_____

E|-----------0-|---------0-------|
B|-3-----------|---------------3-|
G|-2-----------|-----------------|
D|-0-----------|-0---------------|
A|-------------|-----------------|
E|-------------|-----------------|
 I    can't   change____

E|-3-----2-----0-|------------------------|
B|-3-----3-----3-|-3--------2---3---5---2-|
G|-2-----2-----2-|-2----------------------|
D|-0-----0-----0-|-0----------------------|
A|---------------|------------------------|
E|---------------|------------------------|
                 Ride on      train___

E|-5------(5)-------|---|
B|-2------(2)-------|---|
G|-2------(2)-------|-2-|
D|------------------|-2-|
A|----------------0-|-0-|
E|------------------|---|

E|-0-----2-|---------------|
B|-3-----3-|-2-------------|
G|-2-----2-|-2-------------|
D|-0-----0-|-2----------/7-|
A|---------|-0-------------|
E|---------|---------------|

E|---------------------|---|
B|---------------------|---|
G|---------------------|-2-|
D|-7------7/11------11-|-2-|
A|-0------0----------0-|-0-|
E|---------------------|---|

E|---|------------|---|
B|---|------------|---|
G|---|----2-----2-|-2-|
D|---|------------|-2-|
A|-0-|-0-----4----|-0-|
E|---|------------|---|

E|-----------------|----------||
B|-----------------|----------||
G|-----------------|----------||
D|-12---12/14---14/|/17----19-||
A|--0----0--0----0-|--------0-||
E|-----------------|----------||

Train roll on, on down the line.Won't you
Please take me far,far away.Yeah
Now, I feel the wind blow outside my door.Lord, I'm
I'm leaving my woman at home.Oh,yeah

Tuesday's gone with the wind.Yeah
My baby's gone,gone with the wind.Long gone.

And I don't know  where I'm going
I just want to be left alone.Yeah
When this train ends,well, I'll try again,oh no
I'm leaving my woman at home.

My baby's gone
Tuesday's gone with the wind.Oh,yeah
Tuesday's gone with the wind.Yeah
Tuesday's gone,gone with the wind.Yeah
My baby's gone with the wind

Train roll on,
Train roll on, many miles from my home
See, I'm riding my blues,babe,blues away.Yeah
Well,Tuesday, you see,oh, she had to be free
But somehow, I've got to,to carry on

My baby's gone
Tuesday's gone with the wind
Tuesday's gone with the wind
Tuesday's gone with the wind
My baby's gone with the wind

Тональность:

Это должно быть в ТОП-листе! - Топ-лист композиций



Назад
Рекомендуем посмотреть другие песни исполнителя «Metallica»:

  • Комменты Fb ()
  • Комменты ВК



Добавить в Избранное Браузера
Сохранить здесь Очистить


x

0


+
-

+
-

-

Авторизация





Зарегистрироваться

M

Дата и время

  • 12:13:47
     

Социальные ссылки


Наши приложения

  • Muzbank App Play Market
  • Muzbank Amazon App