MUZBANK


МУЗЫКАЛЬНО-ИНФОРМАЦИОННЫЙ БАНК





MMetallica • Until It Sleeps (аккорды и текст - chords & lyrics)


566

Print

Видео «Until It Sleeps (Metallica)»

Видео клипы к песне подбираются автоматически сайтом youtube. Возможны некоторые несоответствия клипов песне.

↑ Спрятать рекламу ↑






 


Bass Intro:       Tune Guitars down 1/2 step
-----------------------|
-----------------------|
-------------------0---|
|---0-5--7/8--7--0-5--7/8--1-------|
          sl.          sl.

Main Line:                                      Fill2(at 3rd verse)
|---------0------------------5--|-------0-------------------------|
-3--1--0---------5--|----------3--1--0----------------|
----------2--0---5----------2--0----------|
|------2---------------------7--|----2----------------------------|
|---0------------------------7--|--0------------------------------|
-----------------5------------------------|
Where Do I take this pain of mine?I run but it stays right by my side
Just Like a curse just like a stray,You feed it once and now it stays
So tell me why you 

Тональность:

Это должно быть в ТОП-листе! - Топ-лист композиций



Назад
Рекомендуем посмотреть другие песни исполнителя «Metallica»:

  • Комменты Fb ()
  • Комменты ВК



Добавить в Избранное Браузера
Сохранить здесь Очистить


x

0


+
-

+
-

-

Авторизация





Зарегистрироваться

M

Дата и время

  • 16:10:44
     

Социальные ссылки


Наши приложения

  • Muzbank App Play Market
  • Muzbank Amazon App