MUZBANK


МУЗЫКАЛЬНО-ИНФОРМАЦИОННЫЙ БАНК





MMetallica • Wasting my hate (аккорды и текст - chords & lyrics)


471

Print

Видео «Wasting my hate (Metallica)»

Видео клипы к песне подбираются автоматически сайтом youtube. Возможны некоторые несоответствия клипов песне.

↑ Спрятать рекламу ↑





Quiet Проигрыш

E|--------------------------------------------------------|
B|--------------------------------------------------------|
G|--------------------------------------------------------|
D|--------------------------------------------------------|
A|-----------5-5Н7--7--7p5----5-5------5------------------|
E|-0-0-5-7-----------------7------5Н7-----3Н5-5p0-3Н5-7-0-|

Play that once than the below riff a until
the fast part of the song.

E|----------------------------------------------------|
B|----------------------------------------------------|
G|----------------------------------------------------|
D|-----------------------------------------------1/2--|
A|-----------5-5Н7-7-7p5----5-5------5------------^---|
E|-0-0-5-7---------------7------5Н7-----3Н5-5p0-5-3-0-|

Fast Bridge Riff A

E|----------------------------|
B|----------------------------|
G|---7-9----7-9----7-9----7-9-|
D|---7-9----7-9----7-9----7-9-|
A|-0-5-7--0-5-7--0-5-7--0-5-7-|
E|----------------------------|

Fast Bridge Riff B

E|---------------------------------------------------------|
B|---------------------------------------------------------|
G|---------------------------------------------------------|
D|------9-9s8-7--------------------------------------------|
A|------7-7s6-5-------9-9s8-7------7-7s5--5s7-7-7--5s7-7-7-|
E|-0-0-----------0-0--7-7s6-5--0-0-5-5s3--3s5-5-5--3s5-5-5-|
* * * * * *

Версия

E|-------------------------------------------------------------|
B|------------------play-----------------------------play------|
G|-4-4-4-5-5-5-5-2-(раза)-fast----4-4-4-5-5-5-2-2-3-3-3-3-fast-|
D|-2-2-2-2-2-2-2----bridge--2-2-2-2-2-2-2-0-0-0-0-0--bridge----|
A|------------------riff A---------------------------riff A----|
E|-------------------------------------------------------------|

Припев:

E|--------------------------------------------------------|
B|--------------------------------------------------------|
G|--------------------------------------------------------|
D|--------------------------------------------------------|
A|-----------5-5Н7--7--7p5----5-5------5------------------|
E|-0-0-5-7-----------------7------5Н7-----3Н5-5p0-3Н5-7-0-|


Doing dead
I would do in the same
A smile to you
Don't waste
Waste your breath

Now I will waste my hate on you

Ain't gonna waste my hate
Ain't gonna waste my hate on you
I think I'll keep it for myself

Ain't gonna kill no more
Ain't got the time to help you score
I think it's time you pleased yourself
Yourself

Doing dead
I would do in the same
A smile to you
Don't waste
Waste your breath
Now I will waste my hate on you
Waste my hate on you

And I think your working now
You think enough to even raise the brow
And to life that tip that you belong
Come on

When I see my hate I see my feet
I feel that blood that pumps in me
Where the hell's my mind
Don't know
Don't know now

Doing dead
I would do in the same
A smile to you
Don't waste
Waste your breath
Now I will waste my hate on you
Waste my hate on you

Then I'll keep it for myself
Hate

Ain't gonna waste my hate
But I don't clean it when they say
Better to give then to receive

Ain't gonna waste my hate
Ain't got time to waste my hate on you
I think I'll keep it all for myself
For myself

Doing dead
I would do in the same
A smile to you
Don't waste
Waste your breath
Now I will waste my hate on you
Waste my hate on you

Think I'll keep it for myself
Yeah

Hate

Тональность:

Это должно быть в ТОП-листе! - Топ-лист композиций



Назад
Рекомендуем посмотреть другие песни исполнителя «Metallica»:

  • Комменты Fb ()
  • Комменты ВК



Добавить в Избранное Браузера
Сохранить здесь Очистить


x

0


+
-

+
-

-

Авторизация





Зарегистрироваться

M

Дата и время

  • 01:19:04
     

Социальные ссылки


Наши приложения

  • Muzbank App Play Market
  • Muzbank Amazon App