MUZBANK


МУЗЫКАЛЬНО-ИНФОРМАЦИОННЫЙ БАНК





MMetallica • Whiskey In The Jar (аккорды и текст - chords & lyrics)


1276

Print

Видео «Whiskey In The Jar (Metallica)»

Видео клипы к песне подбираются автоматически сайтом youtube. Возможны некоторые несоответствия клипов песне.

↑ Спрятать рекламу ↑





 


hb- half bend
Fb- full bend
r-  release 
h-  hammer on
p-  pull off
/-  slide up
-  slide down


Intro: Rhy Fig 1 

  Guitar I
F---------------------------------------------|
C|--5-4-2-2-2-2-2-2-2-2-2-2-2-|-5-5-5-5-5-5-5-5-5-5-5-|-4--2-2-2-2-2-2-2-2-2-2-2--|
G|--5-4-2-2-2-2-2-2-2-2-2-2-2-|-5-5-5-5-5-5-5-5-5-5-5-|-4--2-2-2-2-2-2-2-2-2-2-2--|
D|--3-2-0-0-0-0-0-0-0-0-0-0-0-|-3-3-3-3-3-3-3-3-3-3-3-|-2--0-0-0-0-0-0-0-0-0-0-0--|
 |
 |
 | Guitar II  distant tone w/ octaver
d-----------------------------------------------------------|
A----8-----------------------8------------------------------|
F|--7--7-7h9h11---9--11--7--9/12---|--7--7-7h9h11----9--11--7--9/12-(12)fbr-------|
C-----------------------------------------------------------|


F--------------|
C|-5-5-5-5-5-5-5-5-5-5-5-5-|
G|-5-5-5-5-5-5-5-5-5-5-5-5-|
D|-3-3-3-3-3-3-3-3-3-3-3-3-|
 |
 |
 |
d---------------------------------------------|
A----8---7----------------3-------------------|  End Rhy Fig 1
F|-7--7-7h9h11----9----7--9/12--|-------0--0h2h4----0--2--0-2/4--0---|
C--------------------|----5------------------------------|


Verse 1: Rhy Fig 2


   Guitar I   Guitar II joins
F-------------------------|-5-5-5-5-5-5-5-5-5-5-5-5--|
C|--5-5-5-5-5-5-5-5-5-5-|-2-2-2-2-2-2-2-2-2-2-2-2-|-5-5-5-5-5-5-5-5-5-5-5-5--|
G|--5-5-5-5-5-5-5-5-5-5-|-2-2-2-2-2-2-2-2-2-2-2-2-|-3-3-3-3-3-3-3-3-3-3-3-3--|
D|--3-3-3-3-3-3-3-3-3-3-|-0-0-0-0-0-0-0-0-0-0-0-0----------------|
 |
 |
 | Guitar II octaver off (same as above)
F------------|
C-5----------|
G-5----------|
D-3----------|

F----------------------------------------------------|
C|--5-5-5-5-5-5-5-5-5-5-5-5-5-5-5-5-5-5-5-5-5-5-5-|-4-2-2-2-2-2-2-2-2-2-2-2--|
G|--5-5-5-5-5-5-5-5-5-5-5-5-5-5-5-5-5-5-5-5-5-5-5-|-4-2-2-2-2-2-2-2-2-2-2-2--|
D|--3-3-3-3-3-3-3-3-3-3-3-3-3-3-3-3-3-3-3-3-3-3-3-|-2-0-0-0-0-0-0-0-0-0-0-0--|

F|--5-5-5-5-5-5-5-5-5-5-5-5---------------|
C|--5-5-5-5-5-5-5-5-5-5-5-5-|-5-5-5-5-5-5-5-5-5-5-5-4-|
G|--3-3-3-3-3-3-3-3-3-3-3-3-|-5-5-5-5-5-5-5-5-5-5-5-4-|   End Rhythm Fig 2
D---------------|-3-3-3-3-3-3-3-3-3-3-3-2-|


                     Interlude- W/ Rhy Fig 1

  Guitar II     W/ octaver
d---------------------------------------------------|
A-----8--------------------8------------------------|
F--|-7-7-7h9h11----9--11--7--9/12-|--7-7-7h9h11----9--11--7-9/12--(12)fbr-|
C|--5-5---5-----------------------------------------------------|
G|--5-5---5-----------------------------------------------------|
D|--3-3---3--0--------------------------------------------------|



d-----------------------------------------------------------------------|
A-8--10fb-10--10fb--10fb-10fbr-|-8--8h10p8---8-----------------3--------------------|
F|-(12)7--9---------------------------------------0----0h2h4-----0--2--0--2hbr-p0--|
C----------------------------------5-----------------------------------|
G-----------------------------------------------------------------------|
D-----------------------------------------------------------------------|



Verse 2: W/ Rhy Fig 2 (Guitars I 

Тональность:

Это должно быть в ТОП-листе! - Топ-лист композиций



Назад
Рекомендуем посмотреть другие песни исполнителя «Metallica»:

  • Комменты Fb ()
  • Комменты ВК



Добавить в Избранное Браузера
Сохранить здесь Очистить


x

0


+
-

+
-

-

Авторизация





Зарегистрироваться

M

Дата и время

  • 07:59:01
     

Социальные ссылки


Наши приложения

  • Muzbank App Play Market
  • Muzbank Amazon App