MUZBANK


МУЗЫКАЛЬНО-ИНФОРМАЦИОННЫЙ БАНК





ММиронов Андрей • Песня Министра-Администратора (аккорды и текст - chords & lyrics)


3061

Print

Видео «Песня Министра-Администратора (Миронов Андрей)»

Видео клипы к песне подбираются автоматически сайтом youtube. Возможны некоторые несоответствия клипов песне.

↑ Спрятать рекламу ↑





Обычный аккорд вначале
1)---1----1--1--1
2)---3----3--3--3
3)---2----2--2--2          и так дальше
4)------0------0--
5)-0--------0-----
6)-----------------

Хорошо когда женщина есть
Леди, дама
Сеньора, фемина
А для женщины главное честь
Когда есть у ней рядом мужчина
И повсюду тем более здесь 
Где природа дика и невинна
___________________________________________________________________________________________

Припев соло. Повторяется дважды

1)---------------5-5-5-5-5-4-3-4-----------5-5-5-5-4-3-4-----------5-5-5-5-4-3-4-------6--5-5-6-5-4-5
2)---5--6--7--8---------------------4-4-4-4----------------4-4-4-4-------------------6-6-6------------------

А бабочка крылышками 
бяк-бяк-бяк-бяк
А за ней воробушек прыг-прыг-прыг-прыг
Он её голубушку шмяк-шмяк-шмяк-шмяк
Ам-ням-ням-ням
Да и шмыг-шмыг-шмыг-шмыг
___________________________________________________________________________________________

 Обычный аккорд 
1)---1----1--1--1
2)---3----3--3--3
3)---2----2--2--2          и так дальше
4)------0------0--
5)-0--------0-----
6)-----------------

Вы мой ангел
вы мой идеал
моя звёздочка
ягодка, рыбка
Зубки жемчуг
А губки корал
Хороши также
грудь и улыбка
Я таких никогда не встречал
пусть исправится эта ошибка
___________________________________________________________________________________________

Припев соло. Повторяется трижды

1)---------------5-5-5-5-5-4-3-4-----------5-5-5-5-4-3-4-----------5-5-5-5-4-3-4-------6--5-5-6-5-4-5
2)---5--6--7--8---------------------4-4-4-4----------------4-4-4-4-------------------6-6-6------------------

А бабочка крылышками 
бяк-бяк-бяк-бяк
А за ней воробушек прыг-прыг-прыг-прыг
Он её голубушку шмяк-шмяк-шмяк-шмяк
Ам-ням-ням-ням
Да и шмыг-шмыг-шмыг-шмыг

Тональность:

Это должно быть в ТОП-листе! - Топ-лист композиций



Назад
Рекомендуем посмотреть другие песни исполнителя «Миронов Андрей»:

  • Комменты Fb ()
  • Комменты ВК



Добавить в Избранное Браузера
Сохранить здесь Очистить


x

0


+
-

+
-

-

Авторизация





Зарегистрироваться

M

Дата и время

  • 23:49:33
     

Социальные ссылки


Наши приложения

  • Muzbank App Play Market
  • Muzbank Amazon App