MUZBANK


МУЗЫКАЛЬНО-ИНФОРМАЦИОННЫЙ БАНК





MMisc • Brazillian National Hymn (аккорды и текст - chords & lyrics)


378

Print

Видео «Brazillian National Hymn (Misc)»

Видео клипы к песне подбираются автоматически сайтом youtube. Возможны некоторые несоответствия клипов песне.

↑ Спрятать рекламу ↑





 


-== Brazilian Nacional Hymn==-
          tabbed by
  (Alexandre - Night Raider)
       (ICQ# - 3727476)


** Ignore Timing **


Intro


|-------------------------------2---------------------------|
|-----------------------------2---------------------0-------|
|---------0-0-0-0-0-4-4-4-4-4-----------0---0-2-4-2---4-2-2-|
|-0-0-0-0-------------------------0-0-0---4-----------------|


|-------------------------------4-2-1-1-------------------|
|-------------------0-0-0-0-0-4---------4-4-2-2-0-0-------|
|---------2-2-2-2-2---------------------------------2-2-4-|
|-2-2-2-2-------------------------------------------------|


|-----------------------------------------------------------------------|
|---------------------------------------0-------------------2-----------|
|---------0-0-0-0-0-4-0-0-0-0---2-2-2-2---2-2-2-2---4-4-4-4---4-4-4-4-0-|
|-0-0-0-0---------------------2-------------------4---------------------|


|-------------------------------------|
|-0-0-0-0---2-2-2-2-------------------|
|---------2---------4-0-0-------0-0-0-|
|-------------------------4-2-4-------|



1 

Тональность:

Это должно быть в ТОП-листе! - Топ-лист композиций



Назад
Рекомендуем посмотреть другие песни исполнителя «Misc»:

  • Комменты Fb ()
  • Комменты ВК



Добавить в Избранное Браузера
Сохранить здесь Очистить


x

0


+
-

+
-

-

Авторизация





Зарегистрироваться

M

Дата и время

  • 16:14:06
     

Социальные ссылки


Наши приложения

  • Muzbank App Play Market
  • Muzbank Amazon App