MUZBANK


МУЗЫКАЛЬНО-ИНФОРМАЦИОННЫЙ БАНК





MMisc Computer Games • Super Mario Brothers (аккорды и текст - chords & lyrics)


1002

Print

Видео «Super Mario Brothers (Misc Computer Games)»

Видео клипы к песне подбираются автоматически сайтом youtube. Возможны некоторые несоответствия клипов песне.

↑ Спрятать рекламу ↑





 


------------------------------------------------------------
			     Misc. - Super Mario Brothers  
------------------------------------------------------------

If you have ever played the original Mario Brothers game, you probably know what this one sounds like.  It is that intro to the stages.

e|-0-0--0---0-3---------------------------------------------
B|--------1-------------------------------------------------
G|---------------0------------------------------------------
D|----------------------------------------------------------
A|----------------------------------------------------------
E|----------------------------------------------------------


e|-----------------------0-3-5--1-3-0--------|
B|--1----------0----------------------1-3-0--|
G|-----0-----2---3-2---0---------------------|
D|--------2----------------------------------| x2
A|-------------------------------------------|
E|-------------------------------------------|

e|--3-2-1---0---------------3-2-1---0--8-8-8--------3-2-1---0-----------------------------|
B|--------4-------1---1-3---------4-----------5-1---------4-------1---1-3----4-3-1--------|
G|------------1-2---2-----------------------------------------1-2---2---------------0-0---|
D|----------------------------------------------------------------------------------------| x2
A|--------------------------------------------------------------------------------------3-|
E|----------------------------------------------------------------------------------------|



e|------------0--------------------0----------------0--------|
B|--1-1-1-1-3---1--------1-1-1-1-3--------1-1-1-1-3---1------|
G|----------------2-0-----------------0-----------------2-0--|
D|-----------------------------------------------------------|
A|-----------------------------------------------------------|
E|-----------------------------------------------------------|

e|--0-0-0---0-3----|
B|--------1--------|
G|--------------0--|
D|-----------------|
A|-----------------|
E|-----------------|

e|-----------------------0-3-5--1-3-0--------|
B|--1----------0----------------------1-3-0--|
G|-----0-----2---3-2---0---------------------|
D|--------2----------------------------------| x2
A|-------------------------------------------|
E|-------------------------------------------|

e|-0-----------1-1-------5-5-5-3-1-0----------0-----------1-1-------1-1-1-0-------------|
B|---1-----------------0-------------1----------1-----------------0---------3-1---------|
G|-----0--1--2-----2--------------------2-0-------0--1--2-----2-------------------------|X2
D|--------------------------------------------------------------------------------------|
A|--------------------------------------------------------------------------------------|
E|--------------------------------------------------------------------------------------|

e|------------0--------------------0--------------0--------|
B|--1-1-1-1-3---1--------1-1-1-1-3------1-1-1-1-3---1------|
G|----------------2-0-----------------0---------------2-0--|
D|---------------------------------------------------------|
A|---------------------------------------------------------|
E|---------------------------------------------------------|

e|--0-0-0---0-3-----|
B|--------1---------|
G|---------------0--|
D|------------------|
A|------------------|
E|------------------|

e|--0-----------1-1-------5-5-5-3-1-0----------0-----------1-1-------1-1-1-0-------------|
B|----1-----------------0-------------1----------1-----------------0---------3-1---------|
G|------0--1--2-----2--------------------2-0-------0--1--2-----2-------------------------|
D|---------------------------------------------------------------------------------------|
A|---------------------------------------------------------------------------------------|
E|---------------------------------------------------------------------------------------|

e|-----------------------0-3-5--1-3-0--------|
B|--1----------0----------------------1-3-0--|
G|-----0-----2---3-2---0---------------------|
D|--------2----------------------------------| x2
A|-------------------------------------------|
E|-------------------------------------------|

e|--3-2-1---0---------------3-2-1---0--8-8-8--------3-2-1---0-----------------------------|
B|--------4-------1---1-3---------4-----------5-1---------4-------1---1-3----4-3-1--------|
G|------------1-2---2-----------------------------------------1-2---2---------------0-0---|
D|----------------------------------------------------------------------------------------| x2
A|--------------------------------------------------------------------------------------3-|
E|----------------------------------------------------------------------------------------|

e|------------0--------------------0----------------0--------|
B|--1-1-1-1-3---1--------1-1-1-1-3--------1-1-1-1-3---1------|
G|----------------2-0-----------------------------------2-0--|
D|-----------------------------------------------------------|
A|-----------------------------------------------------------|
E|-----------------------------------------------------------|

e|--0-0-0---0-3----|
B|--------1--------|
G|-----------------|
D|-----------------|
A|-----------------|
E|-----------------|

Тональность:

Это должно быть в ТОП-листе! - Топ-лист композиций



Назад
Рекомендуем посмотреть другие песни исполнителя «Misc Computer Games»:

  • Комменты Fb ()
  • Комменты ВК



Добавить в Избранное Браузера
Сохранить здесь Очистить


x

0


+
-

+
-

-

Авторизация





Зарегистрироваться

M

Дата и время

  • 14:32:15
     

Социальные ссылки


Наши приложения

  • Muzbank App Play Market
  • Muzbank Amazon App