MUZBANK


МУЗЫКАЛЬНО-ИНФОРМАЦИОННЫЙ БАНК





MMisc Soundtrack • Aladdin Theme (аккорды и текст - chords & lyrics)


489

Print

Видео «Aladdin Theme (Misc Soundtrack)»

Видео клипы к песне подбираются автоматически сайтом youtube. Возможны некоторые несоответствия клипов песне.

↑ Спрятать рекламу ↑





 


A whole new world- Aladdin soundtrack  			Transcribed by Matt Lefler
I you put this into microsoft word it will fix the legnth problem

e|----------------------------------------------------------------|
B|-3-1-4-3-----3-1-4-3---3-4-3-1--1-0-3-1---3-1-0-1---0-3-1-(5)2nd|
G|---------3-----------3------------------4---------2-----(2-0)1st|
D|-----------3----------------------------------------------------|
A|----------------------------------------------------------------|
E|----------------------------------------------------------------|

|-----5-3-5-3-----5-3--------------3-7-5-3---5-7-3--------------------|
|-5-6---------5-6-----3-6-5-5 

Тональность:

Это должно быть в ТОП-листе! - Топ-лист композиций



Назад
Рекомендуем посмотреть другие песни исполнителя «Misc Soundtrack»:

  • Комменты Fb ()
  • Комменты ВК



Добавить в Избранное Браузера
Сохранить здесь Очистить


x

0


+
-

+
-

-

Авторизация





Зарегистрироваться

M

Дата и время

  • 07:32:58
     

Социальные ссылки


Наши приложения

  • Muzbank App Play Market
  • Muzbank Amazon App