MUZBANK


МУЗЫКАЛЬНО-ИНФОРМАЦИОННЫЙ БАНК





MMisc Soundtrack • Linus And Lucy Theme (аккорды и текст - chords & lyrics)


324

Print

Видео «Linus And Lucy Theme (Misc Soundtrack)»

Видео клипы к песне подбираются автоматически сайтом youtube. Возможны некоторые несоответствия клипов песне.

↑ Спрятать рекламу ↑





 


Linus and Lucy composed by Vince Guaraldi tabbed by Jeffrey Henry, Ok this is a 
wierd one, Its the song from Penuts, you know, Charlie Brown. Anyways it can either
be played two ways. 1 with two basses or a guitar and a bass, one instrument playing 
one part and one instrument playing the other part. Its fun this way and 
it awesome for timeing practice. 2. It can be played on a bass useing a double 
handed tapping method (no strumming or plucking, all tapping with both hands at once).
Ill divide it into 3 sections and in left hand and right hand.
Intro/Section 1/Left hand
G---------------|-------------------------||----------------
D------5------5-|------------------------.||----------------
A----5------5---|-----5--/--7--5--3->-5--.||-X6-------------
E--3------3-----|--3----------------------||----------------

Section 1/Right hand/Pay this at the same time as the low part.
G--12--14--16--16--14--12-|-14--12--|-12-14-16-16-14-12-|-14-12-|| 
D-------------------------|---------|-------------------|-------||
A-------------------------|---------|-------------------|-------||
E-------------------------|---------|-------------------|-------||

Section two/Left hand
G--------------|-------------------|---------------|-------------------||
D------3-----3-|-------------------|------5-----5--|------------------.||
A----3-----3---|----3-/-5-3-1->-3--|----5-----5----|----5-/-7--3->-5--.||
E--1-----1-----|-1-----------------|--3-----3------|--3----------------||
 

Тональность:

Это должно быть в ТОП-листе! - Топ-лист композиций



Назад
Рекомендуем посмотреть другие песни исполнителя «Misc Soundtrack»:

  • Комменты Fb ()
  • Комменты ВК



Добавить в Избранное Браузера
Сохранить здесь Очистить


x

0


+
-

+
-

-

Авторизация





Зарегистрироваться

M

Дата и время

  • 10:58:48
     

Социальные ссылки


Наши приложения

  • Muzbank App Play Market
  • Muzbank Amazon App