MUZBANK


МУЗЫКАЛЬНО-ИНФОРМАЦИОННЫЙ БАНК





MMisc Unsigned Bands • Novation - Rewind (аккорды и текст - chords & lyrics)


346

Print

Видео «Novation - Rewind (Misc Unsigned Bands)»

Видео клипы к песне подбираются автоматически сайтом youtube. Возможны некоторые несоответствия клипов песне.

↑ Спрятать рекламу ↑





 


Band:Novation
Song:Rewind



Intro:
e-----------------------------------------
B-----------------------------------------
G-----------------------------------------
D-8--8/77-755-5/7-7/88-8/77-75-5/77-7/88
A-----------------------------------------
E-----------------------------------------

VERSE:
e-----------------------------------------
B-----------------------------------------
G-----------------------------------------
D-8--8/77-755-5/7-7/88-8/77-75-5/77-7/88
A-----------------------------------------
E-----------------------------------------

CHORUS: 
e-----------------------------------------
B-----------------------------------------
G--8888-9999-6666-------------------------
D--8888-9999-6666-------------------------(X3)
A--6666-7777-4444-------------------------
E-----------------------------------------


 	Bm	D	G
 	How long should I 	wait, take your 	time
 	Bm	D	G
 	Is this a mis	take to be in 	line
 	Bm	D	G
 	When will you make your 	move, I made 	mine
 	Bm	D	G
 	I don't mean to be 	rude, perhaps I'm 	blinde

(Chorus:)
 	A	G
 	None of this 	seems quite right
 	A	G
 	Stars are on 	strike tonight
 	A	G
 	Wondering 	why we can't rewind

(Verse 2:)
 	Bm	D	G
 	Your voice is still 	fresh in my 	ears
 	Bm	D	G
 	It's been months but it 	feels all like 	years
 	Bm	D	G
 	Tell me when, tell me 	where, I'll 	go
 	Bm	D	G
 	Show me you still 	care, I'll 	go

(Chorus:)
 	A	G
 	None of this 	seems quite right
 	A	G
 	Stars are on 	strike tonight
 	A	G
 	Wondering 	why we can't rewind

(Interlude:)
x4 x1
e|--0----0----0--|--0--|
B|--3----7----3--|--3--|
G|--4----7----0--|--3--|
D|--4----7----0--|--3--|
A|--0----0----2--|--0--|
E|--0----0----0--|--0--|


 Bm	D	G
How long should I 	wait, take your time

 

Тональность:

Это должно быть в ТОП-листе! - Топ-лист композиций



Назад
Рекомендуем посмотреть другие песни исполнителя «Misc Unsigned Bands»:

  • Комменты Fb ()
  • Комменты ВК



Добавить в Избранное Браузера
Сохранить здесь Очистить


x

0


+
-

+
-

-

Авторизация





Зарегистрироваться

M

Дата и время

  • 20:30:08
     

Социальные ссылки


Наши приложения

  • Muzbank App Play Market
  • Muzbank Amazon App