MUZBANK


МУЗЫКАЛЬНО-ИНФОРМАЦИОННЫЙ БАНК





MMisc Wwf • Wwf Rvd (аккорды и текст - chords & lyrics)


476

Print

Видео «Wwf Rvd (Misc Wwf)»

Видео клипы к песне подбираются автоматически сайтом youtube. Возможны некоторые несоответствия клипов песне.

↑ Спрятать рекламу ↑





 


breaking point - rvd
nathan miller (sweetas104@hotmail.com)

RVD Tab
Part 1
E-----------------------------------------------------------------------------------------------------
B-----------------------------------------------------------------------------------------------------
G-----------------------------------------------------------------------------------------------------
D-----------------------------------------------------------------------------------------------------
A-----------------------------------------------------------------------------------------------------
D-----00000000000000000000---------------------------------------------------------------------

Part 2
E-----------------------------------------------------------------------------------------------------
B-----------------------------------------------------------------------------------------------------
G-----------------------------------------------------------------------------------------------------
D---------1----0-0---1-1---2/-----------------------------------------------------------------------
A---------1----0-0---1-1---2/-----------------------------------------------------------------------
D---------1----0-0---1-1---2/-----------------------------------------------------------------------
This part is close but not 100% 

Part 3
E-----------------------------------------------------------------------------------------------------
B-----------------------------------------------------------------------------------------------------
G-----------------------------------------------------------------------------------------------------
D----------1--1--1/--4--4/--1/--4--4/--1/--4--3--2-----------------------------------------------   
A----------1--1--1/--4--4/--1/--4--4/--1/--4--3--2-------------------------------------------------
D----------1--1--1/--4--4/--1/--4--4/--1/--4--3--2-------------------------------------------------
Strum it up and down to get the right affect 

Part 4 
E-----------------------------------------------------------------------------------------------------
B-----------------------------------------------------------------------------------------------------
G-----------------------------------------------------------------------------------------------------
D----------1--1--1/--4--4/--1/--4--4/--1/---3--2----------------------------------------------------
A----------1--1--1/--4--4/--1/--4--4/--1/---3--2----------------------------------------------------
D----------1--1--1/--4--4/--1/--4--4/--1/---3--2----------------------------------------------------

Part 5
E-------------------------------------------------------------------------------------------------------
B-------------------------------------------------------------------------------------------------------
G-------------------------------------------------------------------------------------------------------
D---------1----------------------------------------------------------------------------------------------
A---------1----------------------------------------------------------------------------------------------
D---------1----------------------------------------------------------------------------------------------

There is a little bit more in this part but I don 

Тональность:

Это должно быть в ТОП-листе! - Топ-лист композиций



Назад
Рекомендуем посмотреть другие песни исполнителя «Misc Wwf»:

  • Комменты Fb ()
  • Комменты ВК



Добавить в Избранное Браузера
Сохранить здесь Очистить


x

0


+
-

+
-

-

Авторизация





Зарегистрироваться

M

Дата и время

  • 08:21:02
     

Социальные ссылки


Наши приложения

  • Muzbank App Play Market
  • Muzbank Amazon App