MUZBANK


МУЗЫКАЛЬНО-ИНФОРМАЦИОННЫЙ БАНК





MMisc Wwf • Wwf Themes Part4 (аккорды и текст - chords & lyrics)


377

Print

Видео «Wwf Themes Part4 (Misc Wwf)»

Видео клипы к песне подбираются автоматически сайтом youtube. Возможны некоторые несоответствия клипов песне.

↑ Спрятать рекламу ↑





 


wwf themes.
Tabbed by ollyninny@hotmail.com.
  
Title : WWF Theme tunes
Author : James .A. Johnston
Transcribed : Olly Williams

Lita
Its close enough , even slightly in the wrong key!

E  -----------------------------------------
B  -----------------------------------------
G  -----------------------------------------
D  -----------------------------------------
A   --4-4---4-5---4-4---4-4---4-5---3-4
E   --2-2---2-3---2-2---2-2---2-3---1-2   Back to start
 
Later on it goes :

E  ---------------------------
B  ---------------------------
G  ---------------------------
D  ---------------------------
A  -4-4--4-5--4-4-4-4-5-4
E  -2-2--2-3--2-2-2-2-3-2-

Raven

Its kinda hard to pick up but its okay , it also sounds like Lita 

Тональность:

Это должно быть в ТОП-листе! - Топ-лист композиций



Назад
Рекомендуем посмотреть другие песни исполнителя «Misc Wwf»:

  • Комменты Fb ()
  • Комменты ВК



Добавить в Избранное Браузера
Сохранить здесь Очистить


x

0


+
-

+
-

-

Авторизация





Зарегистрироваться

M

Дата и время

  • 10:52:20
     

Социальные ссылки


Наши приложения

  • Muzbank App Play Market
  • Muzbank Amazon App