MUZBANK


МУЗЫКАЛЬНО-ИНФОРМАЦИОННЫЙ БАНК





MMisc Your Songs • Hyper 25 - Sure (аккорды и текст - chords & lyrics)


343

Print

Видео «Hyper 25 - Sure (Misc Your Songs)»

Видео клипы к песне подбираются автоматически сайтом youtube. Возможны некоторые несоответствия клипов песне.

↑ Спрятать рекламу ↑





 


Artist: Hyper 25
Album: number 1
Title: Sure
 
The whole of Guitar 2 is with distortion. 
The whole of Guitar 1 is with non-distortion.

Intro
      Guitar 1
 E|------------|------------|------------|-----------|
 B|------------|------------|------------|-----------|
 G|------------|------------|------------|-----------|
 D|------------|------------|------------|-----------|   X 2
 A|------------|------------|------------|-----------|
 E|--0--0---5--|--0--0---3--|--0--0---1--|--1--3--5--|

      Guitar 2
 E|------------|------------|------------|-----------|
 B|------------|------------|------------|-----------|
 G|------------|------------|------------|-----------|
 D|------------|------------|------------|-----------|   X 1 
 A|--0--0---5--|--0--0---3--|--0--0---1--|--1--3--5--|
 E|--0--0---5--|--0--0---3--|--0--0---1--|--1--3--5--|



       
Verse  
       Guitar 1
 E|--------------|-----------|--------------|-----------|
 B|--------------|-----------|--------------|-----------|
 G|--------------|-----------|--------------|-----------|
 D|--0--0-3-0-5--|--0--3--5--|--0--0-3-0-5--|--0--3--5--|   X  4
 A|--------------|-----------|--------------|-----------|
 E|--------------|-----------|--------------|-----------|

                   Guitar 2
 E|--------------|-----------|--------------|-----------|
 B|--------------|-----------|--------------|-----------|
 G|--------------|-----------|--------------|-----------|
 D|--------------|-----------|--------------|-----------|  X  1
 A|--------------|-----------|--------------|-----------|
 E|--0--0-3-0-5--|--0--3--5--|--0--0-3-0-5--|--0--3--5--| 


        Guitar 2 
 E|--------------|-----------|--------------|-----------|
 B|--------------|-----------|--------------|-----------|
 G|--0--0-3-0-5--|--0--3--5--|--0--0-3-0-5--|--0--3--5--|
 D|--------------|-----------|--------------|-----------|  X  1
 A|--------------|-----------|--------------|-----------|
 E|--------------|-----------|--------------|-----------|

    
    




    Guitar 2
 E|--------------|-----------|--------------|-----------|
 B|--------------|-----------|--------------|-----------|
 G|--------------|-----------|--------------|-----------|
 D|--------------|-----------|--------------|-----------|  X  1
 A|--0--0-3-0-5--|--0--3--5--|--0--0-3-0-5--|--0--3--5--|
 E|--------------|-----------|--------------|-----------|




     Guitar 2
 E|--------------|-----------|--------------|-----------|
 B|--0--0-3-0-5--|--0--3--5--|--0--0-3-0-5--|--0--3--5--|
 G|--------------|-----------|--------------|-----------|
 D|--------------|-----------|--------------|-----------|  X  1
 A|--------------|-----------|--------------|-----------|
 E|--------------|-----------|--------------|-----------|

 
    Guitar 1
 E|--0--0-3-0-5--|--0--3--5--|--0--0-3-0-5--|--0--3--5--|
 B|--0--0-3-0-5--|--0--3--5--|--0--0-3-0-5--|--0--3--5--|
 G|--------------|-----------|--------------|-----------|
 D|--------------|-----------|--------------|-----------|  X 2
 A|--------------|-----------|--------------|-----------|
 E|--------------|-----------|--------------|-----------|
 

     Guitar 2
 E|--------------|-----------|--------------|-----------|
 B|--------------|-----------|--------------|-----------|
 G|--------------|-----------|--------------|-----------|
 D|--------------|-----------|--------------|-----------|  X 2
 A|--0--0-3-0-5--|--0--3--5--|--0--0-3-0-5--|--0--3--5--|
 E|--0--0-3-0-5--|--0--3--5--|--0--0-3-0-5--|--0--3--5--|
 



 Chorus

    Guitar 1
 E|--------------|--------------|--------------|--------------|
 B|--------------|--------------|--------------|--------------|
 G|--0--0--6--4--|--0--0--1--3--|--0--0--5--3--|--0--0--2--4--|
 D|--------------|--------------|--------------|--------------|  X 2
 A|--------------|--------------|--------------|--------------|
 E|--------------|--------------|--------------|--------------|
 
    
    Guitar 2
 E|---------------|------------|---------------|------------|
 B|---------------|------------|---------------|------------|
 G|---------------|------------|---------------|------------|
 D|---------------|------------|---------------|------------|  X 2
 A|--7--7-9-7-11--|--7--9--11--|--7--7-9-7-11--|--7--9--11--|
 E|--7--7-9-7-11--|--7--9--11--|--7--7-9-7-11--|--7--9--11--|



  Outro

    Guitar 1
 E|--------------|-----------|-----------------|------------------|
 B|--------------|-----------|-----------------|------------------|  

Тональность:

Это должно быть в ТОП-листе! - Топ-лист композиций



Назад
Рекомендуем посмотреть другие песни исполнителя «Misc Your Songs»:

  • Комменты Fb ()
  • Комменты ВК



Добавить в Избранное Браузера
Сохранить здесь Очистить


x

0


+
-

+
-

-

Авторизация





Зарегистрироваться

M

Дата и время

  • 07:03:42
     

Социальные ссылки


Наши приложения

  • Muzbank App Play Market
  • Muzbank Amazon App