MUZBANK


МУЗЫКАЛЬНО-ИНФОРМАЦИОННЫЙ БАНК





MMisc Your Songs • Roni (аккорды и текст - chords & lyrics)


393

Print

Видео «Roni (Misc Your Songs)»

Видео клипы к песне подбираются автоматически сайтом youtube. Возможны некоторые несоответствия клипов песне.

↑ Спрятать рекламу ↑





 


Tabbed by:Mike Man
Email:michael_felton@rlstevenson.org

Tuning:DADGBe

e|-----VERSE---------------(PALM MUTE)-----------|
B|-----------------------------------------------|
G|--2222--------5555-----------------------------|
D|--2222--3333--5555--5555-----------------------|
A|--0000--3333--3333--5555-----------------------|
E|--------3333--------5555-----------------------|

e|------------------PRECHORUS----(let ring)------------------------|
B|-----------------------------------------------------------------|
G|-----------------------------------------------------------------|
D|-----7----3----10----5-------------------------------------------|
A|-----7----3----10----5-------------------------------------------|
E|-----7----3----10----5-------------------------------------------|

e|--------------------------CHORUS-----------------------------|
B|-------------------------------------------------------------|
G|-----------5----------------------------------555555---------|
D|-77XXX--3--5-----------------777777--333333---555555---555555|
A|-77XXX--3--3 TWO TIMES THEN--777777--333333---333333---555555|
E|-77XXX--3--------------------777777--333333------------555555|

e|------------------------INTERLUDE------------------------------|
B|---------------------------------------------------------------|
G|--------------5------------------------------5--5--5-----------|
D|--7-----3----5-5----5-----7--7--7---3--3--3---5--5---5--5--5---|
A|-7-7---3-3--3---3--5-5-----7--7------3--3---3--3--3---5--5-----|
E|7---7-3---3-------5---5--7--7--7---3--3--3----------5--5--5----|

LYRICS(COPYRIGHTED 2003)
VERSE
I met this girl			                                      
she just was so fine
why has it taken
so much time to find a girl just like her
When I saw her
For the first time
I thought that I was 
Losing my mind
This girl 
Just seemed so perfect
Her eyes and her hair
My mind was everywhere
PRECHORUS
roni was so hot
so beautiful and gorgeous
roni was a babe
so perfect in every way
CHORUS
shes just another girl
like the rest
she broke my heart
she was no piece of art
she is just another
Santa Cruz stoner x2
VERSE
one night she led me on
the next day, I was gone
in paradise I was
all I could think about was her
I told my friends
About this one girl
The girl that was great
But makes me wanna hurl
This girl 

Тональность:

Это должно быть в ТОП-листе! - Топ-лист композиций



Назад
Рекомендуем посмотреть другие песни исполнителя «Misc Your Songs»:

  • Комменты Fb ()
  • Комменты ВК



Добавить в Избранное Браузера
Сохранить здесь Очистить


x

0


+
-

+
-

-

Авторизация





Зарегистрироваться

M

Дата и время

  • 11:21:21
     

Социальные ссылки


Наши приложения

  • Muzbank App Play Market
  • Muzbank Amazon App