MUZBANK


МУЗЫКАЛЬНО-ИНФОРМАЦИОННЫЙ БАНК





MMoby • Southside (аккорды и текст - chords & lyrics)


507

Print

Видео «Southside (Moby)»

Видео клипы к песне подбираются автоматически сайтом youtube. Возможны некоторые несоответствия клипов песне.

↑ Спрятать рекламу ↑






E|-------------------------------------------------------------|
B|-------------------------------------------------------------|
G|-(11)--9------------------ 9-9-9-9-9-------------------------|
D|-----------11-11-11-11-11------------11-11-11-11-11-11--9-11-|
A|-------------------------------------------------------------|
E|-------------------------------------------------------------|

E|------------------------------------------|
B|------------------------------------------|
G|----(9 11)x6-bend up-and-strike-with pick-|
D|------------------------------------------|
A|-9-11-------------------------------------|
E|------------------------------------------|

It’s mostly just improvisation. Play around and listen to the song.

E|-------------------------------------------------------------------------|
B|-------------------------------------------------------------------------|
G|----------------------------9-9-9-9-9-------------------------------9-11-|
D|-11-11-11-11---------9-11-------------11-11-11-11----------9-11----------|
A|--------------------9-11--------------------------------------9-11-------|
E|-------------------------------------------------------------------------|

E|-----------------------------|
B|--9-12-9-12 –9-12 –9-12-9-12-|
G|-----------------------------|
D|-----------------------------|
A|-----------------------------|
E|-----------------------------|

E|-12--9-------------------------------------------------------------|
B|---------12--9-----------------------------------------------------|
G|-----------------(9-11)-bend up and strike really fast with pick—9-|
D|-------------------------------------------------------------------|
A|-------------------------------------------------------------------|
E|-------------------------------------------------------------------|

E|--------------------------------------x--x-x--|
B|--------------------------------------x--x-x--|
G|---------------------------- x-scratch--------|
D|--11-11-------------------2-----------x--x--x-|
A|----------------------------2---------x--x--x-|
E|--------12

Тональность:

Это должно быть в ТОП-листе! - Топ-лист композиций



Назад
Рекомендуем посмотреть другие песни исполнителя «Moby»:

  • Комменты Fb ()
  • Комменты ВК



Добавить в Избранное Браузера
Сохранить здесь Очистить


x

0


+
-

+
-

-

Авторизация





Зарегистрироваться

M

Дата и время

  • 12:33:40
     

Социальные ссылки


Наши приложения

  • Muzbank App Play Market
  • Muzbank Amazon App