MUZBANK


МУЗЫКАЛЬНО-ИНФОРМАЦИОННЫЙ БАНК





MMoby • We Are All Made Of Stars (аккорды и текст - chords & lyrics)


560

Print

Видео «We Are All Made Of Stars (Moby)»

Видео клипы к песне подбираются автоматически сайтом youtube. Возможны некоторые несоответствия клипов песне.

↑ Спрятать рекламу ↑






Вступление: 2X
Time: 1/8

     Am                  Em                    G
E|--------------------|-------------------|--------------------|
B|-1--------1--1----1-|-0----0--0-------0-|-0----0--0--------0-|
G|-2------2----2----2-|-0----0--0-----0---|-0----0--0------0---|
D|-2----2------2----2-|-2----2--2---2-----|-0----0--0----0-----|
A|-0--0--------0--0---|-------------------|--------------------|
E|--------------------|-0--0----0-0-------|-3--3----3--3-------|

   D
E|-2-------2--------2-|
B|-3-------3------3---|
G|-2-------2----2-----|
D|-0-------0--0-------|
A|--------------------|
E|--------------------|

main:

E|-------------|-------------|--------------|-2-----2---2--2-|
B|-1---1---1-1-|-0---0---0-0-|-0---0---0--0-|-3-----3---3--3-|
G|-2---2---2-2-|-0---0---0-0-|-0---0---0--0-|-2-----2---2--2-|
D|-2---2---2-2-|-2---2---2-2-|-0---0---0--0-|-0--0----0----0-|
A|-0-0---0---0-|-------------|--------------|----------------|
E|-------------|-0-0---0---0-|-3-3---3----3-|----------------|

Тональность:

Это должно быть в ТОП-листе! - Топ-лист композиций



Назад
Рекомендуем посмотреть другие песни исполнителя «Moby»:

  • Комменты Fb ()
  • Комменты ВК



Добавить в Избранное Браузера
Сохранить здесь Очистить


x

0


+
-

+
-

-

Авторизация





Зарегистрироваться

M

Дата и время

  • 22:34:01
     

Социальные ссылки


Наши приложения

  • Muzbank App Play Market
  • Muzbank Amazon App