MUZBANK


МУЗЫКАЛЬНО-ИНФОРМАЦИОННЫЙ БАНК





MMoby • Why Does My Heart Feel So Bad (аккорды и текст - chords & lyrics)


1030

Print

Видео «Why Does My Heart Feel So Bad (Moby)»

Видео клипы к песне подбираются автоматически сайтом youtube. Возможны некоторые несоответствия клипов песне.

↑ Спрятать рекламу ↑






   Am         Am         Em         Em
E|-0----------0----------0----------0---------|
B|-1-------1--1-------1--0-------0--0-------0-|
G|-2-2---2----2-----2----0-----0----0-----0---|
D|-2---2------2----------2----------2---2-----|
A|-0----------0----------2----------2---------|
E|-----------------------0----------0---------|
   Why does my heart     Feel so bad

   G          G          D          D
E|-3----------3----------2----------2-|
B|-0-------0--0-------0--3----------3-|
G|-0-----0----0-0---0----2----------2-|
D|-0----------0---0------0----------0-|
A|-2----------2-----------------------|
E|-3----------3-----------------------|
   Why does my soul      Feel so bad

Тональность:

Это должно быть в ТОП-листе! - Топ-лист композиций



Назад
Рекомендуем посмотреть другие песни исполнителя «Moby»:

  • Комменты Fb ()
  • Комменты ВК



Добавить в Избранное Браузера
Сохранить здесь Очистить


x

0


+
-

+
-

-

Авторизация





Зарегистрироваться

M

Дата и время

  • 00:39:31
     

Социальные ссылки


Наши приложения

  • Muzbank App Play Market
  • Muzbank Amazon App