MUZBANK


МУЗЫКАЛЬНО-ИНФОРМАЦИОННЫЙ БАНК





MMoore Gary • Moving On (аккорды и текст - chords & lyrics)


540

Print

Видео «Moving On (Moore Gary)»

Видео клипы к песне подбираются автоматически сайтом youtube. Возможны некоторые несоответствия клипов песне.

↑ Спрятать рекламу ↑





Main Riff
E|--------------------------|
B|--------------------------|
G|--------------------------|
D|-------7-7-7-7----7-7-7-7-|
A|-------7-7-7-7----7-7-7-7-|
E|-------5-5-5-5----5-5-5-5-|

Chorus
"Im Moving On" "moving on"
E|--------------------------------------|
B|--------------------------------------|
G|---7----7-7-7------9---9-9-9------9-9-|
D|---7----7-7-7------9---9-9-9------9-9-|
A|---5----5-5-5------7---7-7-7------7-7-|
E|--------------------------------------|
Im not really sure about de E section...

-Main Riff
-Chorus
-Fill 1 (im not realize)
-Main Riff
-Chorus

Fill 2
E|---------------------------------------------------------------|
B|------8--10--8-----8-10-8-----8--10-8--------------------------|
G|----9-------------9-----------9------------------a lot of time-|
D|---------------------------------------------------------------|
A|---------------------------------------------------------------|
E|---------------------------------------------------------------|

E|-----------------------------------|
B|---13b-13b-13b-13b-13b-13b-13b--10-|
G|-----------------------------------|
D|-----------------------------------| You cant ask for more just apply the
A|-----------------------------------| improvisation!!
E|-----------------------------------|

-Main Riff
-Chorus

end:
"its that what im moving on"
E|--------------------|
B|--------------------|
G|------9------5------|
D|------9------5----7-|
A|------7------7----7-|
E|------------------5-|

Тональность:

Это должно быть в ТОП-листе! - Топ-лист композиций



Назад
Рекомендуем посмотреть другие песни исполнителя «Moore Gary»:

  • Комменты Fb ()
  • Комменты ВК



Добавить в Избранное Браузера
Сохранить здесь Очистить


x

0


+
-

+
-

-

Авторизация





Зарегистрироваться

M

Дата и время

  • 23:32:55
     

Социальные ссылки


Наши приложения

  • Muzbank App Play Market
  • Muzbank Amazon App