MUZBANK


МУЗЫКАЛЬНО-ИНФОРМАЦИОННЫЙ БАНК





MMoore Gary • Oh Pretty Woman (аккорды и текст - chords & lyrics)


951

Print

Видео «Oh Pretty Woman (Moore Gary)»

Видео клипы к песне подбираются автоматически сайтом youtube. Возможны некоторые несоответствия клипов песне.

↑ Спрятать рекламу ↑






G|----------|
D|----------|
A|------1-2-|
E|----3-----|


Riff 1
G|----------------|
D|-----1----------|
A|-3-3----3---1-2-|
E|----------3-----|


Riff 2
G|-----1----------|-----1----------|-----------------|----------------|
D|-3-3----3---1-2-|-3-3----3-------|------1----------|-----1----------|
A|----------3-----|------------1-2-|-3-3-----3---1-2-|-3-3----3---1-2-|
E|----------------|----------3-----|-----------3-----|----------3-----|

G|-----------------|-------------|-----------------|--------------|
D|-----------------|-------------|------1----------|--------------|
A|-----------------|-------1--2--|-3-3-----3---1-2-|-3--------1-2-|
E|-3-3-3-3-3-3-3-3-|-3---3-------|-----------3-----|----3---3-----|


Song Structure
Riff 1 (12x)
Riff 2

Riff 1 (8x)
Riff 2

Riff 1 (4x)
Riff 2

Riff 1 (8x)
Riff 2

Riff 1 (4x)
Riff 2

Riff 1 (4x)
Riff 2

Riff 1 (8x)

then End
G|-----------------|-------------|-------------------| |-----|
D|-----------------|-------------|*------1----------*| |-----|
A|-----------------|-------1--2--|*-3-3-----3---1-2-*| (3x) |-3---|
E|-3-3-3-3-3-3-3-3-|-3---3-------|------------3------| |-----|

Тональность:

Это должно быть в ТОП-листе! - Топ-лист композиций



Назад
Рекомендуем посмотреть другие песни исполнителя «Moore Gary»:

  • Комменты Fb ()
  • Комменты ВК



Добавить в Избранное Браузера
Сохранить здесь Очистить


x

0


+
-

+
-

-

Авторизация





Зарегистрироваться

M

Дата и время

  • 11:33:58
     

Социальные ссылки


Наши приложения

  • Muzbank App Play Market
  • Muzbank Amazon App