MUZBANK


МУЗЫКАЛЬНО-ИНФОРМАЦИОННЫЙ БАНК





MMoore Gary • Walking By Myself (аккорды и текст - chords & lyrics)


551

Print

Видео «Walking By Myself (Moore Gary)»

Видео клипы к песне подбираются автоматически сайтом youtube. Возможны некоторые несоответствия клипов песне.

↑ Спрятать рекламу ↑






Intro/ main riff (Play twice) (end riff)

E|----------------|
B|----------------|
G|----------------|
D|----------------|
A|----5-----5--7⁄-|
E|-7-----7--------|

co
E|---------------|
B|---------------|
G|---------------|
D|---------------|
A|----5-----5--7-|
E|-7-----7-------|
You know I love you

co
E|---------------|
B|---------------|
G|---------------|
D|---------------|
A|----5-----5--7-|
E|-7-----7-------|
you know its true

co
E|---------------|
B|---------------|
G|---------------|
D|---------------|
A|----5-----5--7-|
E|-7-----7-------|
give you all my love babe

co E9
E|----------------------------|-----------------|
B|----------------------------|------------7--7-|
G|----------------------------|------------7--7-|
D|----------------------------|------------6--6-|
A|----------------------------|------------7--7-|
E|-5------7-----5-----3-------|-----------------|
what more can I do

Verse:
E5 E6 E5 E6 E5 E6 E5 E6
E|-------------------------|---------------------|
B|-------------------------|---------------------|
G|-------------------------|---------------------|
D|-------------------------|---------------------|
A|-2--2--4-----2--2--4-----|-2--2--4-----2--2--4-|
E|-0--0--0-----0--0--0-----|-0--0--0-----0--0--0-|
Walking by myself

E5 E6 E5 E6
E|-------------------------|---------------------|
B|-------------------------|---------------------|
G|-------------------------|---------------------|
D|-------------------------|---------------------|
A|-2--2--4-----2--2--4-----|---------------------|
E|-0--0--0-----0--0--0-----|-0----h4-----5-----6-|
I hope you understand

(verse end)
A5 A6 A5 A6 B5 B6 B5 B6
E|-------------------------|---------------------|
B|-------------------------|---------------------|
G|-------------------------|---------------------|
D|-2--2--4-----2--2--4-----|-4--4--6-----4--4--6-|
A|-0--0--0-----0--0--0-----|-2--2--2-----2--2--2-|
E|-------------------------|---------------------|
I just want to be your lovin' man

Turnround: (End of turnaround)

E|-------------------------|------------|
B|-------------------------|------------|
G|-------------------------|------------|
D|-------------------------|------------|
A|-------------------------|-------5----|
E|-0-----4-----5-----6-----|-7--------7-|

2nd verse:
I love you
Yes I love you with my heart and soul
I would'nt mistreat you
For my weight in gold

(played over the chords from the verse)

E5 E5 E6 etc..
E|------------------------------------------|-----------------------------|
B|------------------------------------------|-----------------------------|
G|-14b(16)-(16)-(16)--12-----14-------12----|-14b(16)-(16)-12------14-----|
D|------------------------------14----------|--------------------------14-|
A|------------------------------------------|-----------------------------|
E|------------------------------------------|-----------------------------|

Ph MU----| Ph Ph
E|-------------------------------------|--------------------------------|
B|-------------------------------------|--------------------------------|
G|--7-----------7-----------7----------|-7------------------------------|
D|-----9--8--7-----9--8--7-----9--8--7-|---9--8--7--5--7--7p5--7p5------|
A|-------------------------------------|----------------------------7p5-|
E|-------------------------------------|--------------------------------|
Woo

* Mute top E with R.H. to prevent accidental notes *
E|-------------------------|---------------------------------------------------|
B|-----------------------0-|-h4p0-h4p0-h4p0-h4p0-h4p0-h4p0-h5p0-h5p0-h5p0-h7p0-|
G|-------------------------|---------------------------------------------------|
D|-----5----5~~~~----------|---------------------------------------------------|
A|-7-------7---------------|---------------------------------------------------|
E|-------------------------|---------------------------------------------------|

Ph
E|----12-------12---------------------------|-------------------|
B|----15b(17)------12-----------------------|-------------------|
G|---------------------12h14p12------14-----|-12----------------|
D|-------------------------------14------14-|-------14----------|
A|------------------------------------------|-----------14~~~~~-|
E|-0----------------------------------------|-------------------|
Keep on walking

E|-----------------------------------------------|--------------|
B|-/15-15-15-14/15-15-15-14/15-15-15-14/15-15-15-|--------------|
G|-/16-16-16-15/16-16-16-15/16-16-16-15/16-16-16-|-12-----------|
D|-----------------------------------------------|-------14~~~~-|
A|-----------------------------------------------|--------------|
E|-----------------------------------------------|--------------|

CO CO
E|-----------------------------------------------|-19b(22)~----19--19b(22)-19-|
B|-/15-15-15-14/15-15-15-14/15-15-15-14/15-15-15-|----------------------------|
G|-/16-16-16-15/16-16-16-15/16-16-16-15/16-16-16-|----------------------------|
D|-----------------------------------------------|----------------------------|
A|-----------------------------------------------|----------------------------|
E|-----------------------------------------------|----------------------------|

E|-19b(22)--------17h20p17----------------17--------------|
B|-------------------------20p17------17------20b(22)~~~⁄-|
G|--------------------------------19----------------------|
D|--------------------------------------------------------|
A|--------------------------------------------------------|
E|--------------------------------------------------------|

E|-15b17----12h15-------------12h14p12----15-------------------------------|
B|----------------15p12h15h12----------12----15p12------12----12-15b(17)~~-|
G|-------------------------------------------------15------15--------------|
D|-------------------------------------------------------------------------|
A|-------------------------------------------------------------------------|
E|-------------------------------------------------------------------------|

E|-------12-------------------------------------------------------|
B|-~~--------15--12-----------------------------------------------|
G|-------------------14p12------14------12------------------------|
D|--------------------------14------14-----14--12-----------------|
A|-------------------------------------------------14--12--13--14-|
E|----------------------------------------------------------------|

Тональность:

Это должно быть в ТОП-листе! - Топ-лист композиций



Назад
Рекомендуем посмотреть другие песни исполнителя «Moore Gary»:

  • Комменты Fb ()
  • Комменты ВК



Добавить в Избранное Браузера
Сохранить здесь Очистить


x

0


+
-

+
-

-

Авторизация





Зарегистрироваться

M

Дата и время

  • 14:06:34
     

Социальные ссылки


Наши приложения

  • Muzbank App Play Market
  • Muzbank Amazon App