MUZBANK


МУЗЫКАЛЬНО-ИНФОРМАЦИОННЫЙ БАНК





MMotley Crue • Just Another Psycho (аккорды и текст - chords & lyrics)


152

Print

Видео «Just Another Psycho (Motley Crue)»

Видео клипы к песне подбираются автоматически сайтом youtube. Возможны некоторые несоответствия клипов песне.

↑ Спрятать рекламу ↑





They opened up the door, to my insanity
They should′ve slammed it shut right then
And thrown away the key
They stitched up my head, from my lobotomy
They should′ve never let me out
I′m public enemy

I′m not OK
I′m not OK
The voices in my head always say
I should be committed
But being so twisted
′Cause everyone knows
I′m just another psycho
I went to the doctor
It wasn′t a shocker
When he said I should know
I′m just another psycho
Shoved into a hole
Got covered up with dirt
That′s no way to treat someone whose feelings don′t get hurt
I don′t need a reason
To hurt you just for fun
I terrorize your perfect life, yeah you better run

I′m not o.k.
I′m not o.k.
The voices in my head always say (voices in my head)
I should be committed
But being so twisted
′Cause everyone knows
I′m just another psycho

I′m not o.k.
I should be committed
But being so twisted
′Cause everyone knows
I′m just another psycho
I should be committed
But being so twisted
′Cause everyone knows
I′m just another psycho




Tuning: d A F C G C

guitar 1 - Mick Mars - Rhythm
guitar 2 - Mick Mars - Lead

intro (guitar 1 only):
d|------------------------------------|------------------------------------|
A|------------------------------------|------------------------------------|
F|------------------------------------|------------------------------------|
C|------------------------------------|------------------------------------|
G|--------------------------10-----9~-|------------------------10-----9----|
C|-0-0-10h12-0-0-9h10-0-0-0----0-0----|-0-10h12-0-0-9h10-0-0-0----0-0---12-|
   x x       x x      x x x    x x              x x      x x x    x x

d|------------------------------------------------------|
A|------------------------------------------------------|
F|-----------------------------------------0-------0----|
C|---------------------------------------3---3---3---3--|
G|----------------------10-----9~-\\\\-1-------0--------|
C|-10h12-0-0-9h10-0-0-0----0-0--------------------------|
         x x      x x x    x x 

riff 1 (guitar 1 only):
d|------------------------|------------------------|
A|------------------------|------------------------|
F|-10-------7---5---7-7-7-|-10-------7---5---7-7-7-|
C|-10-------7---5---7-7-7-|-10-------7---5---7-7-7-|
G|-8--------5-0-3---5-5-5-|-8--------5-0-3---5-5-5-|
C|------0-0-------0-------|------0-0-------0-------|
        x x   x   x              x x   x   x

d|---------------------------------|
A|---------------------------------|
F|-3-3-3-3-3-3-3-3-----------------|
C|-3-3-3-3-3-3-3-3-3-3-3-3-7-7-7-7-|
G|-1-1-1-1-1-1-1-1-3-3-3-3-7-7-7-7-|
G|-----------------3-3-3-3-7-7-7-7-|


riff 2 (guitar 1):
d|----------------------|------------------------------|
A|----------------------|------------------------------|
F|-10-------7---5---7-7-|-10/12\10-------7---5---7-7-7-|
C|-10-------7---5---7-7-|-10/12\10-------7---5---7-7-7-|
G|-8--------5-0-3---5-5-|-8-/10\8--------5-0-3---5-5-5-|
C|------0-0-------0-----|------------0-0-------0-------|
        x x   x   x                  x x   x   x

d|---------------------------------|
A|---------------------------------|
F|-3-3-3-3-3-3-3-3-----------------|
C|-3-3-3-3-3-3-3-3-3-3-3-3-7-7-7-7-|
G|-1-1-1-1-1-1-1-1-3-3-3-3-7-7-7-7-|
G|-----------------3-3-3-3-7-7-7-7-|


riff 2 fill (guitar 2):
d|-------------------------------------------------------------------------|
A|-------------------------------------------------------------------------|
F|-14-14-14-14-14-14-14-14-14-14-14-14-14-14-14-14-13-13-13-13-13-13-13-13-|
C|-x--x--x--x--x--x--x--x--x--x--x--x--x--x--x--x--x--x--x--x--x--x--x--x--|
G|-12-12-12-12-12-12-12-12-12-12-12-12-12-12-12-12-11-11-11-11-11-11-11-11-|
C|-------------------------------------------------------------------------|

d|-------------------------------------------------------------------------|
A|-------------------------------------------------------------------------|
F|-13-13-13-13-13-13-13-13-10-10-10-10-10-10-10-10-10-10-10-10-10-10-10-10-|
C|-x--x--x--x--x--x--x--x--x--x--x--x--x--x--x--x--x--x--x--x--x--x--x--x--|
G|-11-11-11-11-11-11-11-11-8--8--8--8--8--8--8--8--8--8--8--8--8--8--8--8--|
C|-------------------------------------------------------------------------|

d|-----------------------------------------|
A|-----------------------------------------|
F|-10-10-10-10-10-10-10-10-9---7---6-6-6-6-|
C|-x--x--x--x--x--x--x--x--x---x---x-x-x-x-|
G|-8--8--8--8--8--8--8--8--7---5---4-4-4-4-|
C|-----------------------------------------|


verse (guitar 1 only):
d|-------------------------------------------------------------------------|
A|-------------------------------------------------------------------------|
F|-7---7----7--7--7-7----7---7-5---5----5--5--5-5----5-----3---3----3--3--3|
C|-7---7----7--7--7-7----7---7-5---5----5--5--5-5----5-----3---3----3--3--3|
G|-5---5----5--5--5-5----5---5-3---3----3--3--3-3----3---0-1---1----1--1--1|
C|-------------------------------------------------------------------------|

d|----------------------------------------|
A|----------------------------------------|
F|-3----3---3-2---2----2--2-2-2-----------|
C|-3----3---3-2---2----2--2-2-2-----------|
G|-1----1---1-0---0----0--0-0-0-----------|
C|------------------------------5--3--2---|


pre-chorus:
(guitar 1:)
d|-----------------------------------------------------------------|
A|-----------------------------------------------------------------|
F|---------------------------------7-7-7-7-7-7-7-7-----------------|
C|-3-3-3-3-3-3-3-3-7-7-7-7-7-7-7-7-7-7-7-7-7-7-7-7-8-8-8-8-8-8-8-8-|
G|-3-3-3-3-3-3-3-3-7-7-7-7-7-7-7-7-5-5-5-5-5-5-5-5-8-8-8-8-8-8-8-8-|
C|-3-3-3-3-3-3-3-3-7-7-7-7-7-7-7-7-0-0-0-0-0-0-0-0-8-8-8-8-8-8-8-8-|
-| (guitar 2:)                                                     |
d|-----------------------------------------------------------------|
A|-----10----10--------10----10--------10----10--------11----11----|
F|---10----10----10--10----10----10--10----10----10--10----10----10|
C|-10----10----10--11----11----11--12----12----12--12----12----12--|
G|-----------------------------------------------------------------|
C|-----------------------------------------------------------------|


chorus (guitar 1):
d|------------------------|------------------------|
A|------------------------|------------------------|
F|-10-------7---5---7-7-7-|-10-------7---5---7-7-7-|
C|-10-------7---5---7-7-7-|-10-------7---5---7-7-7-|
G|-8--------5-0-3---5-5-5-|-8--------5-0-3---5-5-5-|
C|------0-0-------0-------|------0-0-------0-------|
        x x   x   x              x x   x   x

d|---------------------------------|
A|---------------------------------|
F|-3-3-3-3-3-3-3-3-----------------|
C|-3-3-3-3-3-3-3-3-3-3-3-3-7-7-7-7-|
G|-1-1-1-1-1-1-1-1-3-3-3-3-7-7-7-7-|
G|-----------------3-3-3-3-7-7-7-7-|

d|------------------------|------------------------|
A|------------------------|------------------------|
F|-10-------7---5---7-7-7-|-10-------7---5---7-7-7-|
C|-10-------7---5---7-7-7-|-10-------7---5---7-7-7-|
G|-8--------5-0-3---5-5-5-|-8--------5-0-3---5-5-5-|
C|------0-0-------0-------|------0-0-------0-------|
        x x   x   x              x x   x   x

d|---------------------------------|
A|---------------------------------|
F|-3-3-3-3-3-3-3-3-----------------|
C|-3-3-3-3-3-3-3-3-3-------7-------|
G|-1-1-1-1-1-1-1-1-3-------7-------|
G|-----------------3-------7-------|

chorus fill (guitar 2):
d|-------------------------------------------------------------------------|
A|-------------------------------------------------------------------------|
F|-14-14-14-14-14-14-14-14-14-14-14-14-14-14-14-14-13-13-13-13-13-13-13-13-|
C|-x--x--x--x--x--x--x--x--x--x--x--x--x--x--x--x--x--x--x--x--x--x--x--x--|
G|-12-12-12-12-12-12-12-12-12-12-12-12-12-12-12-12-11-11-11-11-11-11-11-11-|
C|-------------------------------------------------------------------------|

d|-------------------------------------------------------------------------|
A|-------------------------------------------------------------------------|
F|-13-13-13-13-13-13-13-13-10-10-10-10-10-10-10-10-10-10-10-10-10-10-10-10-|
C|-x--x--x--x--x--x--x--x--x--x--x--x--x--x--x--x--x--x--x--x--x--x--x--x--|
G|-11-11-11-11-11-11-11-11-8--8--8--8--8--8--8--8--8--8--8--8--8--8--8--8--|
C|-------------------------------------------------------------------------|

d|-----------------------------------------|
A|-----------------------------------------|
F|-10-10-10-10-10-10-10-10-9---7---6-6-6-6-|
C|-x--x--x--x--x--x--x--x--x---x---x-x-x-x-|
G|-8--8--8--8--8--8--8--8--7---5---4-4-4-4-|
C|-----------------------------------------|

d|-------------------------------------------------------------------------|
A|-------------------------------------------------------------------------|
F|-14-14-14-14-14-14-14-14-14-14-14-14-14-14-14-14-13-13-13-13-13-13-13-13-|
C|-x--x--x--x--x--x--x--x--x--x--x--x--x--x--x--x--x--x--x--x--x--x--x--x--|
G|-12-12-12-12-12-12-12-12-12-12-12-12-12-12-12-12-11-11-11-11-11-11-11-11-|
C|-------------------------------------------------------------------------|

d|-------------------------------------------------------------------------|
A|-------------------------------------------------------------------------|
F|-13-13-13-13-13-13-13-13-10-10-10-10-10-10-10-10-10-10-10-10-10-10-10-10-|
C|-x--x--x--x--x--x--x--x--x--x--x--x--x--x--x--x--x--x--x--x--x--x--x--x--|
G|-11-11-11-11-11-11-11-11-8--8--8--8--8--8--8--8--8--8--8--8--8--8--8--8--|
C|-------------------------------------------------------------------------|

d|-----------------------------------------|
A|-----------------------------------------|
F|-10-10-10-10-10-10-10-10-9---7---6-6-6-6-|
C|-x--x--x--x--x--x--x--x--x---x---x-x-x-x-|
G|-8--8--8--8--8--8--8--8--7---5---4-4-4-4-|
C|-----------------------------------------|


riff 3:
d|------------------------------------|------------------------------------|
A|------------------------------------|------------------------------------|
F|------------------------------------|------------------------------------|
C|------------------------------------|------------------------------------|
G|--------------------------10-----9~-|------------------------10-----9----|
C|-0-0-10h12-0-0-9h10-0-0-0----0-0----|-0-10h12-0-0-9h10-0-0-0----0-0---12-|
   x x       x x      x x x    x x              x x      x x x    x x

bridge:
(guitar 1:)
d|----------------------------------------------------|
A|----------------------------------------------------|
F|----------------------------------------------------|
C|---------7----------7-------------7----------7------|
G|----------------------------------------------------|
C|-x-x-x-x----x-x-x-x-------x-x-x-x----x-x-x-x--------|
-| ^X's represent the drum beats and are only there for timing.
-| (guitar 2:)                                        |
d|---------------------------12121212121212-----------|
A|----------------------------------------------------|
F|------------------------------------------10\\\\\\--|
C|------------------------------------------10\\\\\\--|
G|----------------------------------------------------|
C|-------------~~~~~~~~~~~~0--------------------------|
               ^(depress whammy bar and slowly release)

guitar solo:
d|------------------------------------------------------------------|
A|------------------------------------------------------------------|
F|-------14---------------12^------------------14----------12^------|
C|-10-11-12-------10------------12-------10-11-12-------10-------12-|
G|------------------------------------------------------------------|
C|------------------------------------------------------------------|

d|---------------------------------------------------|
A|----11-10---/15-13---/11-10-/11-10---/15-----------|
F|-10--------------------------------------14\\\-----|
C|----------------------------------------------\\\\-|
G|---------------------------------------------------|
C|---------------------------------------------------|

d|-10-10-----8-8---13-13-13-12-10-10-----10-10-10---8-8---13-13-13-12-10---|
A|-10-10-----8-8---13-13-13-12-10-10-----10-10-10---8-8---13-13-13-12-10---|
F|-------------------------------------------------------------------------|
C|-------------------------------------------------------------------------|
G|-------------------------------------------------------------------------|
C|-------------------------------------------------------------------------|

(very fast picking:)
d|------------------------------------------------------------------------|
A|--------------------------------------------15-15-15-13-----17-17-17-15-|
F|-12-12-12-14-14-14-12-12-12-15-15-15-14---------------------------------|
C|------------------------------------------------------------------------|
G|------------------------------------------------------------------------|
C|------------------------------------------------------------------------|

(more fast picking:)
d|-----------------18-----17-----15-----17---15\13----|
A|-18-18-18-17----------------------------------------|
F|----------------------------------------------------|
C|----------------------------------------------------|
G|----------------------------------------------------|
C|----------------------------------------------------|


bridge 2:
(guitar 1:)
d|----------------------------------|
A|----------------------------------|
F|----------------------------------|
C|-10101010101010101010101010101010-|
G|-8-8-8-8-8-8-8-8-7-7-7-7-7-7-7-7--|
C|----------------------------------|
-| (guitar 2:)                      |
d|----------------------------------|
A|-----10----10--------10----10-----|
F|---10----10----10--10----10----10-|
C|-10----10----10--11----11----11---|
G|----------------------------------|
C|----------------------------------|


bridge 3:
d|----------------------------------------------------------|
A|----------------------------------------------------------|
F|-(bass, vocals, and drums only)---------------------------|
C|------------------------------------------3-3-3-3-7-7-7-7-|
G|------------------------------------\/\/\-3-3-3-3-7-7-7-7-|
C|------------------------------------------3-3-3-3-7-7-7-7-|

last chorus (guitar 1):
d|------------------------|------------------------|
A|------------------------|------------------------|
F|-10-------7---5---7-7-7-|-10-------7---5---7-7-7-|
C|-10-------7---5---7-7-7-|-10-------7---5---7-7-7-|
G|-8--------5-0-3---5-5-5-|-8--------5-0-3---5-5-5-|
C|------0-0-------0-------|------0-0-------0-------|
        x x   x   x              x x   x   x

d|---------------------------------|
A|---------------------------------|
F|-3-3-3-3-3-3-3-3-----------------|
C|-3-3-3-3-3-3-3-3-3-3-3-3-7-7-7-7-|
G|-1-1-1-1-1-1-1-1-3-3-3-3-7-7-7-7-|
G|-----------------3-3-3-3-7-7-7-7-|

d|------------------------|------------------------|
A|------------------------|------------------------|
F|-10-------7---5---7-7-7-|-10-------7---5---7-7-7-|
C|-10-------7---5---7-7-7-|-10-------7---5---7-7-7-|
G|-8--------5-0-3---5-5-5-|-8--------5-0-3---5-5-5-|
C|------0-0-------0-------|------0-0-------0-------|
        x x   x   x              x x   x   x

d|---------------------------------|
A|---------------------------------|
F|-3-3-3-3-3-3-3-3-----------------|
C|-3-3-3-3-3-3-3-3-3-3-3-3-7-7-7-7-|
G|-1-1-1-1-1-1-1-1-3-3-3-3-7-7-7-7-|
G|-----------------3-3-3-3-7-7-7-7-|

d|------------------------|------------------------|
A|------------------------|------------------------|
F|-10-------7---5---7-7-7-|-10-------7---5---7-7-7-|
C|-10-------7---5---7-7-7-|-10-------7---5---7-7-7-|
G|-8--------5-0-3---5-5-5-|-8--------5-0-3---5-5-5-|
C|------0-0-------0-------|------0-0-------0-------|
        x x   x   x              x x   x   x

d|---------------------------------|
A|---------------------------------|
F|-3-3-3-3-3-3-3-3-----------------|
C|-3-3-3-3-3-3-3-3-3-3-3-3-7-7-7-7-|
G|-1-1-1-1-1-1-1-1-3-3-3-3-7-7-7-7-|
G|-----------------3-3-3-3-7-7-7-7-|



last chorus fill (guitar 2):
d|-------------------------------------------------------------------------|
A|-------------------------------------------------------------------------|
F|-14-14-14-14-14-14-14-14-14-14-14-14-14-14-14-14-13-13-13-13-13-13-13-13-|
C|-x--x--x--x--x--x--x--x--x--x--x--x--x--x--x--x--x--x--x--x--x--x--x--x--|
G|-12-12-12-12-12-12-12-12-12-12-12-12-12-12-12-12-11-11-11-11-11-11-11-11-|
C|-------------------------------------------------------------------------|

d|-------------------------------------------------------------------------|
A|-------------------------------------------------------------------------|
F|-13-13-13-13-13-13-13-13-10-10-10-10-10-10-10-10-10-10-10-10-10-10-10-10-|
C|-x--x--x--x--x--x--x--x--x--x--x--x--x--x--x--x--x--x--x--x--x--x--x--x--|
G|-11-11-11-11-11-11-11-11-8--8--8--8--8--8--8--8--8--8--8--8--8--8--8--8--|
C|-------------------------------------------------------------------------|

d|-----------------------------------------|
A|-----------------------------------------|
F|-10-10-10-10-10-10-10-10-9---7---6-6-6-6-|
C|-x--x--x--x--x--x--x--x--x---x---x-x-x-x-|
G|-8--8--8--8--8--8--8--8--7---5---4-4-4-4-|
C|-----------------------------------------|

d|-------------------------------------------------------------------------|
A|-------------------------------------------------------------------------|
F|-14-14-14-14-14-14-14-14-14-14-14-14-14-14-14-14-13-13-13-13-13-13-13-13-|
C|-x--x--x--x--x--x--x--x--x--x--x--x--x--x--x--x--x--x--x--x--x--x--x--x--|
G|-12-12-12-12-12-12-12-12-12-12-12-12-12-12-12-12-11-11-11-11-11-11-11-11-|
C|-------------------------------------------------------------------------|

d|-------------------------------------------------------------------------|
A|-------------------------------------------------------------------------|
F|-13-13-13-13-13-13-13-13-10-10-10-10-10-10-10-10-10-10-10-10-10-10-10-10-|
C|-x--x--x--x--x--x--x--x--x--x--x--x--x--x--x--x--x--x--x--x--x--x--x--x--|
G|-11-11-11-11-11-11-11-11-8--8--8--8--8--8--8--8--8--8--8--8--8--8--8--8--|
C|-------------------------------------------------------------------------|

d|-----------------------------------------|
A|-----------------------------------------|
F|-10-10-10-10-10-10-10-10-9---7---6-6-6-6-|
C|-x--x--x--x--x--x--x--x--x---x---x-x-x-x-|
G|-8--8--8--8--8--8--8--8--7---5---4-4-4-4-|
C|-----------------------------------------|

d|-------------------------------------------------------------------------|
A|-------------------------------------------------------------------------|
F|-14-14-14-14-14-14-14-14-14-14-14-14-14-14-14-14-13-13-13-13-13-13-13-13-|
C|-x--x--x--x--x--x--x--x--x--x--x--x--x--x--x--x--x--x--x--x--x--x--x--x--|
G|-12-12-12-12-12-12-12-12-12-12-12-12-12-12-12-12-11-11-11-11-11-11-11-11-|
C|-------------------------------------------------------------------------|

d|-------------------------------------------------------------------------|
A|-------------------------------------------------------------------------|
F|-13-13-13-13-13-13-13-13-10-10-10-10-10-10-10-10-10-10-10-10-10-10-10-10-|
C|-x--x--x--x--x--x--x--x--x--x--x--x--x--x--x--x--x--x--x--x--x--x--x--x--|
G|-11-11-11-11-11-11-11-11-8--8--8--8--8--8--8--8--8--8--8--8--8--8--8--8--|
C|-------------------------------------------------------------------------|

d|-----------------------------------------|
A|-----------------------------------------|
F|-10-10-10-10-10-10-10-10-9---7---6-6-6-6-|
C|-x--x--x--x--x--x--x--x--x---x---x-x-x-x-|
G|-8--8--8--8--8--8--8--8--7---5---4-4-4-4-|
C|-----------------------------------------|


| ~  vibrato
| +  harmonic
| x  Mute note
| =  Palm Mute
|A.H. Artificial Harmonic

Тональность:

Это должно быть в ТОП-листе! - Топ-лист композиций



Назад
Рекомендуем посмотреть другие песни исполнителя «Motley Crue»:

  • Комменты Fb ()
  • Комменты ВК



Добавить в Избранное Браузера
Сохранить здесь Очистить


x

0


+
-

+
-

-

Авторизация





Зарегистрироваться

M

Дата и время

  • 04:41:59
     

Социальные ссылки


Наши приложения

  • Muzbank App Play Market
  • Muzbank Amazon App