MUZBANK


МУЗЫКАЛЬНО-ИНФОРМАЦИОННЫЙ БАНК





MMotorhead • Born To Raise Hell (аккорды и текст - chords & lyrics)


760

Print

Видео «Born To Raise Hell (Motorhead)»

Видео клипы к песне подбираются автоматически сайтом youtube. Возможны некоторые несоответствия клипов песне.

↑ Спрятать рекламу ↑





Intro
E7#9 C5 G5 A5
1|-------|---------------------------------------|
2|-------|-------8-------------------------------|
3|-------|-------7-------------------------------|
4|-------|-------6-----------------------5-----2-|
5|-------|-------7------------------⁄⁄⁄--3--5--0-|
6|-2-1-0-|-(0)----------------------⁄⁄⁄-----3----|

Riff 1
A5
1|-----------------|------------------|
2|-----------------|------------------|
3|-----------2-----|---2--------------|
4|-2-2-4-2-2-2-2-2-|-2-2-4-2-2-2------|
5|-0-0-0-0-0---0-0-|-0---0-0-0-0-3-4--|
6|-----------------|------------------|

Verse
A5 (x2) D5 (x2)
1|-----------------|------------------|
2|-----------------|------------------|
3|-----------------|-2-2-4---5---4-2--|
4|-2-2-4---5---4-2-|-0-0-0-0-0-0-0-0--|
5|-0-0-0-0-0-0-0-0-|------------------|
6|-----------------|------------------|

Pre-Chorus Ending 1 Ending 2
E5
1|-----------------||-------------0-0--||-------------------|
2|-----------------||-------------0-0--||-------------------|
3|-----------------||------------------||-------------------|
4|-----------------||------------------||---------2-2-------|
5|-2-2-2-2-2-2-2-2-||-2-2-2-2-2-2------||-------------------|
6|-0-0-0-0-0-0-0-0-||-0-0-0-0-0-0------||-0-0-3h4-----3b4-0-|


Chorus
A5 D5 G5
1|-----------------|------------------|-----------------|------------------|
2|-----------------|------------------|-----------------|------------------|
3|-----------------|------------------|-2-2-4---2---4-2-|------------------|
4|-2-2-4---2---4-2-|-2-2-4---2---4-2--|-0-0-0-0-0-0-0-0-|------------------|
5|-0-0-0-0-0-0-0-0-|-0-0-0-0-0-0-0-0--|-----------------|-5-5-5-5-5-5-5-5--|
6|-----------------|------------------|-----------------|-3-3-3-3-3-3-3-3--|
Born.. Born.. We know.. we do it real well

A5 D5 G5 C5
1|-----------------|------------------|-----------------|------------------|
2|-----------------|------------------|-----------------|------------------|
3|-----------------|------------------|-2-2-4---2---4-2-|------------------|
4|-2-2-4---2---4-2-|-2-2-4---2---4-2--|-0-0-0-0-0-0-0-0-|-----------5------|
5|-0-0-0-0-0-0-0-0-|-0-0-0-0-0-0-0-0--|-----------------|-5-----5-5-3------|
6|-----------------|------------------|-----------------|-3-----3-3--------|
Born.. Born.. Voodoo... cast my spell

Bridge
E5
1|-----------------|--------------------|
2|-----------------|--------------------|
3|-----------------|--------------------|
4|-----------------|---------2----------|
5|-2-2-2-2-2-2-2-2-|---------2---2-2-2--|
6|-0-0-0-0-0-0-0-0-|-0-0-3^4-0---0-0-0--|


Fill before 2nd verse

e|---------------|
B|---------------|
G|-4^5-4-2-------|
D|---------4-----|
A|-----------3-4-|
E|---------------|

Rhythm for 1st Solo

D5 (x4) A5 G5 C5 D5 (x2)
e|-----------------|-----------------------------|
B|-----------------|--------------------------3--|
G|-2-2-4---2-2-4---|--2---------------5-------2--|
D|-0-0-0-0-0-0-0-0-|--2-------5-------5-------0--|
A|-----------------|--0-------5-------3----------|
E|-----------------|----------3------------------|


2nd Solo
A5 G5 C5 D5
e|-------------------------------------------------------------------|
B|-13^14---------------15^16---------------16^17--------18^20--------|
G|-------14-14---11-14-------14-14---11-14-------14-14-------14-14---|
D|-------------------------------------------------------------------|
A|-------------------------------------------------------------------|
E|-------------------------------------------------------------------|

A5 G5 C5 D5
e|-------------------------------------------------------------------|
B|-0-8-10~-------------10~---10^-----------10^---------10^-----------|
G|-------------------------------------------------------------------|
D|-------------------------------12^-10⁄8-----12^-10------12^-10-----|
A|-------------------------------------------------------------------|
E|-------------------------------------------------------------------|

A5 G5 C5 D5 A5 G5 C5 D5
e|-------------------------------------------------------------------|
B|-10---10---10---10-------------------------------------------------|
G|---7-8--7-8--7-8--7-8⁄5--------------------------------------------|
D|--------------------------5------5---7-7-----7---5------5---7---7--|
A|--------------------------5---6-7-8-9---8-9--7---5---6-7-8-9-8-9---|
E|--------------------------3------------------5---3-----------------|

A5 G5 C5 D5 E5
e|------------------------|-----------------|
B|------------------------|-----------------|
G|------------------------|-----------------|
D|-7---5------5---7-7-----|-----------------|
A|-5---5---6-7-8-9----0-0-|-2-2-2-2-2-2-2-2-|
E|-5---3------------------|-0-0-0-0-0-0-0-0-|
Stop!

And then, you know what's next===========


Motorhead-Born to raise hell (bastards album)
by guillermo luppi (Lordaborto@mixmail.com)
intro - E5 power chord

Verse 1:
A
listen up here, i'll make it quite clear
D
i'm gonna put some boogie in your ear
A
shake and bop, don't you stop
D
dance like a maniac until you drop
A
i don't mind, i don't mind
D
i can run a razor right up your spine

Pre-Chorus:
E
what are you waiting for
what do you think you were created for
show us you care, show us you dare
you don't know what happened, not if you weren't there

Chorus:
A
born to raise hell, born to raise hell
D G
we know to do it and we do it real well
A
born to raise hell, born to raise hell
D G
voodoo medicine, cast my spell
A
born to raise hell, born to raise hell
D G
play that guitar just like ringing a bell

bridge - E5 power chord
take it or leave it

Verse 2:
going for broke, rock til you choke
it don't matter if you drink or smoke
speak through the beat, get up on your feet
sweating like a hound dog, white as a sheet
don't you be scared, don't you be scared
everybody terrified, it don't seem fair

Pre-Chorus:
what are you waiting for
what do you think you were created for
out of your seat, blind in the heat
do the nasty boogie mama, stomp your feet

Тональность:

Это должно быть в ТОП-листе! - Топ-лист композиций



Назад
Рекомендуем посмотреть другие песни исполнителя «Motorhead»:

  • Комменты Fb ()
  • Комменты ВК



Добавить в Избранное Браузера
Сохранить здесь Очистить


x

0


+
-

+
-

-

Авторизация





Зарегистрироваться

M

Дата и время

  • 09:46:54
     

Социальные ссылки


Наши приложения

  • Muzbank App Play Market
  • Muzbank Amazon App