MUZBANK


МУЗЫКАЛЬНО-ИНФОРМАЦИОННЫЙ БАНК





MMotorhead • Brotherhood Of Man (аккорды и текст - chords & lyrics)


147

Print

Видео «Brotherhood Of Man (Motorhead)»

Видео клипы к песне подбираются автоматически сайтом youtube. Возможны некоторые несоответствия клипов песне.

↑ Спрятать рекламу ↑





Now your time has come a storm of iron in the sky,
War and murder come again, lucky if you die.
No way to rescue destiny, scream and curse in vain,
You will never be remembered, no one knows your name.

When the music changes then all is broken down,
Mighty cities laid to ruin, burning to the ground.
Murder is become the law; you cannot make a stand,
Chaos rules the world now mortal, brotherhood of man.

You cannot hide the truth from me I know what′s in your heart,
Greed and jealousy each equal, all your days now dark.
Mighty mountains fall in dust the world falls into hell,
Faith in lying prophets, no one to lift the spell.

Monsters rule your world are you too scared to understand?
You shall be forever judged and you shall surely hang,
We live and scrape in misery; we die by our own hand,
And still we murder our own children, brotherhood of man.

Blood on all our hands we cannot hope to wash them clean,
History is mystery do you know what it means?
Slaughter, kill and fighting still and murdered where we stand,
Our legacy is lunacy, brotherhood of man.

We are worse than animals, we hunger for the kill.
We put our faith in maniacs the triumph of the will,
We kill for money, wealth and lust, for this we should be damned.
We are disease upon the world, brotherhood of man.



[Tabulature for e/guitar] 
Tuning: Eb Ab Db Gb

---------------|----------------|
---------------|----------------|
---------------|----------------|
-9-9-9---9---9-|-9-9-9----5-7-3-|
-7-7-7---7---7-|-7-7-7----5-7-3-|
--0-0-0-0-0-0--|--0-0-0-0-3-5-1-|

------------------------------------|---------------------------------------|
------------------------------------|---------------------------------------|
------------------------------------|---------------------------------------|
-7-7-7-9-9-9-10-10-10-5-5-5-5-5-5-5-|-3-3-3-5-5-5-2-2-2-2-2-2-2-2-2-2-------|
-7-7-7-9-9-9-10-10-10-5-5-5-5-5-5-5-|-3-3-3-5-5-5-2-2-2-2-2-2-2-2-2-2-------|
-5-5-5-7-7-7-8--8--8--3-3-3-3-3-3-3-|-1-1-1-3-3-3-0-0-0-0-0-0-0-0-0-0-------|

(the same time as the chords end)
------------|
------------|
------------|
-10-9-7-5---|
------------|
------------|

---------------------------------------|
---------------------------------------|
---------------------------------------|
-5-----7-----8-----9-----7/9-9---------|
-5-2-2-7-2-2-8-2-2-9-2-2-5/7-7---------|
-3-0-0-5-0-0-6-0-0-7-0-0---------------|

============================================================================

[Tabulature for Bass-guitar:]

Intro (0:06)
|--------------------|
|--------------------|
|-------7------------|
|-3-5-1-------3-5-1--|

Riff 1 (verse)
|-----------------------------------------------|
|-----------------------------------------------|
|-7----7----7-----7------7--7----7----7---------|
|----0----0-----0----0-0-------0----0----3-5-1--|

Riff 2 (chorus)
|-------------------------------------------------------------------|
|-------------------------------------------------------------------|
|-0-0-0-2-2-2-3-3-3-------------------------------------------------|
|-------------------3-3-3-3-3-3-3--1-1-1-3-3-3-0-0-0-0-0-0-0-0-0-0--|

Riff 3 (bridge)
|---------------------------------------------------------------------------|
|---------------------------------------------------------------------------|
|-------------------------5-7-7--------------------------5-7-7--------------|
|-3-0-0-5-0-0-6-0-0-7-0-0--------3-0-0-5-0-0-6-0-0-7-0-0--------------------|

|-------------------------7-9-9--------------------------7-9-9--|
|-5-----7-----8-----9-----7-9-9--5-----7-----8-----9-----7-9-9--|
|-5-----7-----8-----9-----5-7-7--5-----7-----8-----9-----5-7-7--|
|-3-0-0-5-0-0-6-0-0-7-0-0--------3-0-0-5-0-0-6-0-0-7-0-0--------|

|---------------------------------------------------------------|
|---------------------------------------------------------------|
|-555555555555555555555555555555-77777777777777777777777777777--|
|-333333333333333333333333333333-55555555555555555555555555555--|

|----------------------------------------------------------------|
|-------------------------7777777-99999999999999999999999999999--|
|-88999999999999999999999-5555555-77777777777777777777777777777--|
|-66777777777777777777777----------------------------------------|


| /  slide up
| \  slide down
| h  hammer-on
| p  pull-off
| ~  vibrato
| +  harmonic
| x  Mute note



Тональность:

Это должно быть в ТОП-листе! - Топ-лист композиций



Назад
Рекомендуем посмотреть другие песни исполнителя «Motorhead»:

  • Комменты Fb ()
  • Комменты ВК



Добавить в Избранное Браузера
Сохранить здесь Очистить


x

0


+
-

+
-

-

Авторизация





Зарегистрироваться

M

Дата и время

  • 14:22:32
     

Социальные ссылки


Наши приложения

  • Muzbank App Play Market
  • Muzbank Amazon App