MUZBANK


МУЗЫКАЛЬНО-ИНФОРМАЦИОННЫЙ БАНК





MMotorhead • In Another Time (аккорды и текст - chords & lyrics)


453

Print

Видео «In Another Time (Motorhead)»

Видео клипы к песне подбираются автоматически сайтом youtube. Возможны некоторые несоответствия клипов песне.

↑ Спрятать рекламу ↑





Tune down to Eb
Intro
1|----------------------------|
2|-3--------33----3--------33-|
3|-2--------33----2--------33-|
4|-0-0000000---0000-0000000---|
5|----------------------------|
6|----------------------------|

Main Riff
1|-----------------|
2|-----------------|
3|-----------------|
4|-----------------|
5|-0-565353--53--5-|
6|-0-565353--53--5-|

Verse
1|--------------------------------------------------------|
2|----------33----3--------33----3--------33----3---------|
3|----------33----2--------33----2--------33----2---------|
4|-0-0000000---0000-0000000---0000-0000000---0000-0000000-|
5|--------------------------------------------------------|
6|--------------------------------------------------------|
End 1 End 2
1|--------|----------|
2|-333----|----------|
3|-333----|----------|
4|--------|-00000000-|
5|--------|----------|
6|--------|----------|

Fill (with Wah effect)this is not so right
1|------------------------------|
2|-898686--86--8⁄3898686--86--8-|
3|------------------------------|
4|------------------------------|
5|------------------------------|
6|------------------------------|

Bridge (with Wah) 4th time
1|------------------------------------------|--------------------|
2|------------------------------------------|--------------------|
3|------------------------------------------|--------------------|
4|------------------------------------------|--------------------|
5|-1212121212121212666666663333333399999999-|-1212----333333339⁄-|
6|-1212121212121212666666663333333399999999-|-1212etc.333333339⁄-|

Outro
1|-----------------------------------|
2|-----------------------------------|
3|-----------------------------------|
4|--------------------------------7⁄-|
5|-65--65--65--65--3---0----------5⁄-|
6|-65--65--65--65--3---0----------0--|

Тональность:

Это должно быть в ТОП-листе! - Топ-лист композиций



Назад
Рекомендуем посмотреть другие песни исполнителя «Motorhead»:

  • Комменты Fb ()
  • Комменты ВК



Добавить в Избранное Браузера
Сохранить здесь Очистить


x

0


+
-

+
-

-

Авторизация





Зарегистрироваться

M

Дата и время

  • 23:56:49
     

Социальные ссылки


Наши приложения

  • Muzbank App Play Market
  • Muzbank Amazon App