MUZBANK


МУЗЫКАЛЬНО-ИНФОРМАЦИОННЫЙ БАНК





MMotorhead • In The Name Of Tragedy (аккорды и текст - chords & lyrics)


562

Print

Видео «In The Name Of Tragedy (Motorhead)»

Видео клипы к песне подбираются автоматически сайтом youtube. Возможны некоторые несоответствия клипов песне.

↑ Спрятать рекламу ↑






Gtr I (Eb Ab Db Gb Ab Eb)


Intro & Chorus
Tempo=150
4/4

||----------------------|-----------------|
||o---------------------|-----------------|
||----------------------|---------------0-|
||------2-(2)⁄---2---2⁄-|-----2⁄----0-----|
||o---------------------|---------1---1---|
||--0-0--------0---0----|-0-0-------------|


|---------------------|------------------||
|---------------------|-----------------o||
|---------------------|---------------2--||
|-----2-(2)⁄---2---2⁄-|-----2⁄----0------||
|---------------------|---------1---1---o||
|-0-0--------0---0----|-0-0--------------||


Verse
Eb5 Eb5 F5 F#5 Eb5 F5F#5
||------------------|-----------------|-----------------|-----------------|
||o-----------------|-----------------|-----------------|-----------------|
||------------------|-----------------|-----------------|-----------------|
||------------------|-----------------|-----------------|-----------------|
||o-2-2-2-2-2-2-2-2-|-2-2-2-2-5-4-4s5-|-2-2-2-2-2-2-2-2-|-2-2-2-2-4-5-4---|
||--0-0-0-0-0-0-0-0-|-0-0-0-0-3-2-2s3-|-0-0-0-0-0-0-0-0-|-0-0-0-0-2-3-2---|


Eb5 F#F5
|-----------------|-----------------|
|-----------------|-----------------|
|-----------------|-----------------|
|-----------------|-----------------|
|-2-2-2-2-2-2-2-2-|-2-2-2-2-5-4-4s5-|
|-0-0-0-0-0-0-0-0-|-0-0-0-0-3-2-2s3-|


Eb5 Eb5 A5G#G5 F5
6/4
|-----------------|-------------------------||
|-----------------|------------------------o||
|-----------------|-------------------------||
|-----------------|-------------------------||
|-2-2-2-2-2-2-2-2-|-2-2-2-2-8-7-6--6-5-4---o||
|-0-0-0-0-0-0-0-0-|-0-0-0-0-6-5-4--4-3-2----||

Тональность:

Это должно быть в ТОП-листе! - Топ-лист композиций



Назад
Рекомендуем посмотреть другие песни исполнителя «Motorhead»:

  • Комменты Fb ()
  • Комменты ВК



Добавить в Избранное Браузера
Сохранить здесь Очистить


x

0


+
-

+
-

-

Авторизация





Зарегистрироваться

M

Дата и время

  • 18:20:51
     

Социальные ссылки


Наши приложения

  • Muzbank App Play Market
  • Muzbank Amazon App