MUZBANK


МУЗЫКАЛЬНО-ИНФОРМАЦИОННЫЙ БАНК





MMotorhead • One More Fucking Time (аккорды и текст - chords & lyrics)


1490

Print

Видео «One More Fucking Time (Motorhead)»

Видео клипы к песне подбираются автоматически сайтом youtube. Возможны некоторые несоответствия клипов песне.

↑ Спрятать рекламу ↑






INTRo:
E|------------------|-----|--3--|
B|--3p2-------------|-----|--5--|
G|2-----2--------2--|--5--|--5--|
D|2-------2----2----|--5--|--5--|
A|0----------0------|--3--|--3--|
E|------------------|-----|-----|

E|-3---------------------------------------------------------|
B|-5---------------------------------------------------------|
G|-5------------0-------0--2------------0-------0--2--2--0h2-|
D|-5----------0-------0----2----------0-------0----2--2--0h2-|
A|-3--------2-------0------0--------2-------0------0--0--0---|
E|----0-2-3-------2-----------0-2-3-------2------------------|

VERSE:
E|------------------|-----|--3--|-3-------------------------|
B|--3p2-------------|-----|--5--|-5-------------------------|
G|2-----2--------2--|--5--|--5--|-5------------0-------0--2-|
D|2-------2----2----|--5--|--5--|-5----------0-------0----2-|
A|0----------0------|--3--|--3--|-3--------2-------0------0-|
E|------------------|-----|-----|----0-2-3-------2----------|

CHoRUS:

Em C
Both your eyes wide open, you see the shape Iom in
D Em
It wasnot on my choosing, itos only bones and skin
C
And I will plead no contest, if loving you is a crime
D A
So go on and find me guilty, just one more fucking time

BRIDGE:

C G
And if I would be a bad man, you would have seen the good in me
D A
You would have seen the other, the good man I could be
C G
But since I am a good man, the same was all the same
D A
Nothing I could do, NoTHING I CoULD Do

Тональность:

Это должно быть в ТОП-листе! - Топ-лист композиций



Назад
Рекомендуем посмотреть другие песни исполнителя «Motorhead»:

  • Комменты Fb ()
  • Комменты ВК



Добавить в Избранное Браузера
Сохранить здесь Очистить


x

0


+
-

+
-

-

Авторизация





Зарегистрироваться

M

Дата и время

  • 00:38:16
     

Социальные ссылки


Наши приложения

  • Muzbank App Play Market
  • Muzbank Amazon App