MUZBANK


МУЗЫКАЛЬНО-ИНФОРМАЦИОННЫЙ БАНК





MMotorhead • Play The Game (аккорды и текст - chords & lyrics)


541

Print

Видео «Play The Game (Motorhead)»

Видео клипы к песне подбираются автоматически сайтом youtube. Возможны некоторые несоответствия клипов песне.

↑ Спрятать рекламу ↑





Riff 1 Repeat
G|---|---|--|-----------|-11-11-11--8-8-|
D|---|---|--|-----------|---------------|
A|---|---|--|-----------|---------------|
D|-1-|-1-|11|-1-1--1-1--|---------------|

Riff 2 (x2)
G|---------------------|
D|---------------------|
A|---------------------|
D|-1-1-4--3--1-1--4--3-|

Riff 3 (x2)
G|---------------------|
D|---------------------|
A|---------------------|
D|-1--4--6--1--1--6--4-|

Riff 4 Repeat
G|---------------------------------|--10X-9-10X-9-|
D|---------------------------------|--------------|
A|---------------------------------|--------------|
D|-1-1--8-X-X-X-7--1-1--8-X-X-X-7--|--------------|

Order
Riff 1
Riff 2
Riff 3
Riff 4
Riff 1
Riff 2
Riff 3
Riff 4

Тональность:

Это должно быть в ТОП-листе! - Топ-лист композиций



Назад
Рекомендуем посмотреть другие песни исполнителя «Motorhead»:

  • Комменты Fb ()
  • Комменты ВК



Добавить в Избранное Браузера
Сохранить здесь Очистить


x

0


+
-

+
-

-

Авторизация





Зарегистрироваться

M

Дата и время

  • 07:55:58
     

Социальные ссылки


Наши приложения

  • Muzbank App Play Market
  • Muzbank Amazon App